William, It Was Really Nothing

The Smiths

Composição de: Johnny Marr / Morrissey
tom: E
G7       F#m     A       D      Amaj    Gmaj    G       F#m     A       D

-7---10---9------9-------10-----------------------------------------------
-7-8------9-10---9-10----10-----------------------------------------------
-7--------9--11--9-------10-11--------------------------------------------
-7-10-----9--11--9-12----10-12--------------------------------------------
-7--------9------9-------10-----------------------------------------------
--------------------------------------------------------------------------
(Repete tudo 3x)

G7      G7      Dmaj       Amaj           Dmaj          Amaj
7-------2--------5--------------------------------------------
7-------0--------5-7--7------------5---------------------10---
7-------0--------5-7----7------------6--------------------9---
7-9-----0--------5-7------7------------7-----------------11---
7-------0--------5--------------------------------------------
oh      no                                 everybodys....live their life


Bmaj       Bmaj                Dmaj        Emaj
-------------------------------------------------
-------------------------------------------------
-(pluck)----------------------(strum)------------
-------------------------------------------------
-------------------------------------------------
God knows..Got to live mine    Got knows   Got to live mine

(repete tudo 2x)

         C                    G                   D                 A  G  A
-----------------------------------------------------------------------------
-------------13----13----15-13----12--12--12-10-12------15----17-15-14-12-14-
-----------12--------12---------12------12-----------14-------------14-12-14-
-(slide)-14-----14-----14-----12----12------------16-------16-------14-12-14-
-----------------------------------------------------------------------------
----------------------------------------------------------------------------
G  D   G  A  Bm            B7
--------------7------------7--------------------------
8--10-----10--7-----7------7------7--------------------------
7--11-----9---7---7---7----7----7--7--------------------------
9--12-----11--7-9-------9--7--8------8------------------------
--------------7-9----------7--9-------------------------
--------------7------------7-------------------------------------
Wil       Wil It was...    really.. 

G       Dmaj    G       A       Bm      B7      D       E
-----------------------------------------------------------
-----------------------------------------------------------
------------------------------------7-------7------7----------
-----------------------------------7-7-----7-7----7-7------------
--------------------------------------9-------8------7--------
-----------------------------------------------------------
William         William         It was          It was you life
Página 1 / 1

Letras e título
Acordes e artista

resetar configurações
OK