Is This It

The Strokes

Composição de: Julian Casablancas
Tabber: Johnlennon1984
*

(Note: Watch out with the slowdown in the ending.)

Main Riff

G|------------9-10-12\10--------------7-9-----------|
D|-----7---10----------------7---7-10---------------|
A|-8-8---8---------------8-8---8--------------------|
E|--------------------------------------------------|

G|-----7---7-9-10-12\10-----7---10-12-14-15\--------|
D|-8-8---8--------------8-8---8---------------------|
A|--------------------------------------------------|
E|--------------------------------------------------|

Bridge

G|--------------------------------------------------|
D|--------------------------------------------------|
A|-------------------8-8--8---8-8--8----------------|
E|-8-8--8---8-8--8----------------------------------|

G|--------------------------------------------------|
D|--------------------------------------------------|
A|-------------------8-8--8---8-8--8----------------|
E|-8-8--8---8-8--8----------------------------------|

G|--------------------------------------------------|
D|------------------------------8-7-10--------------|
A|-------------------8---8-8--8---------------------|
E|-8-8--8---8-8--8----------------------------------|

G|--------------------------------------------------|
D|------------------------------8-7-10---10--10-----|
A|-------------------8---8-8--8---------------------|
E|---------------------------------------------8----|

Ending

G|---------------|
D|-8-8-8-8-8-8-8-|
A|---------------|
E|---------------|
Página 1 / 1

Letras e título
Acordes e artista

resetar configurações
OK