One Way Trigger

The Strokes

Composição de: Albert Hammond Jr / Julian Casablancas
tom: G#m
E|-------7---------------7------------|
B|---8-------8-------8-------8------|
G|-9---9---9---9---9---9---9---9-|
D|-------------------------------------|
A|-------------------------------------|
E|-------------------------------------|

E|-------5---------------5-----------|
B|---5-------5-------5-------5------|
G|-6---6---6---6---6---6---6---6-|
D|-------------------------------------|
A|-------------------------------------|
E|-------------------------------------|

E|--------5----------------5----------|
B|---7-------7-------7-------7------|
G|-7---7---7---7---8---8---8---8-|
D|-------------------------------------|
A|-------------------------------------|
E|-------------------------------------|

E|--------3----------------3----------|
B|---3-------3-------3-------3-------|
G|-4---4---4---4---4---4---4---4-|
D|-------------------------------------|
A|-------------------------------------|
E|-------------------------------------|

"you ask me..."
E|--------------------------------------­----------------------------|
B|--------------------------------------­----------------------------|
G|-9-9-9-9-9-9--6-6-6-6-6-6/7-7-7-7-7-7-­-4-4-4-4-4-4-|
D|--------------------------------------­----------------------------|
A|-7-7-7-7-7-7--4-4-4-4-4-4/5-5-5-5-5-5-­-2-2-2-2-2-2-|
E|--------------------------------------­----------------------------|

Solo:

E|--------------------------------------­----------------------|
B|-7-8-7-8-7-7-8-7-7-7-7--7-8-7-9-7-7-8-­7-7-7-7-|
G|--------------------------------------­---------------------|
D|--------------------------------------­---------------------|
A|--------------------------------------­---------------------|
E|--------------------------------------­---------------------|

E|--------------------------------------­-----------------------|
B|-9-11-9-11-9-9-11-9-9-9-9--7-9-7-9-7--9-11-12|
G|--------------------------------------­-----------------------|
D|--------------------------------------­-----------------------|
A|--------------------------------------­-----------------------|
E|--------------------------------------­-----------------------|

E|-9-10-9-10-9-9-10-9-9-9-9--10-12-10-12­-10-10-12-10-10-10-10-|
B|--------------------------------------­----------------------------------------­----|
G|--------------------------------------­----------------------------------------­----|
D|--------------------------------------­----------------------------------------­----|
A|--------------------------------------­----------------------------------------­----|
E|--------------------------------------­----------------------------------------­----|

E|-12-14-12-14-12-12-14-12-12-12-12--14-­15-14-15-14--12-14-15|
B|--------------------------------------­----------------------------------------­----|
G|--------------------------------------­----------------------------------------­----|
D|--------------------------------------­----------------------------------------­----|
A|--------------------------------------­----------------------------------------­----|
E|--------------------------------------­----------------------------------------­----|

Final
E|--------------------------------------­----------------------|
B|--------------------------------------­----------------------|
G|--------------------------------------­---------------------|
D|-9-9-9-9-9-9-9-9-9-9-9-9-9-9-9-9-9-9--9-9-9-9|
A|-9-9-9-9-9-9-9-9-9-9-9-9-9-9-9-9-9-9--9-9-9-9|
E|-7-7-7-7-7-7-7-7-7-7-7-7-7-7-7-7-7-7--7-7-7-7|

Página 1 / 1

Letras e título
Acordes e artista

resetar configurações
OK