Cifra Club

Aprenda

Taken For a Fool

The Strokes

Tab de baixo: Principal
(00:06) 

Intro:
"Sister.."
G----------------------------------------------------------------------------|
D---------------------------7~---------------------------3~------------------|
A--5r-----10-10~---5-8-5-8------7-7--------6-6--0-3-0-3------3-3---0-3-5-----|
D------------------------------------------------------------------------0-0-|

G----------------------------------------------------------------------------|
D---------------------------7~---------------------------3~------------------|
A---------10-10~---5-8-5-8------7-7--------6-6--0-3-0-3------3-3---0-3-5-----|
D------------------------------------------------------------------------0-0-|

G----------7------------5------------------------------------7~-----|
D-------7-----7-----------5---------------5----------------7--------|
A--5-8-----------8-5--------5-3---------5---5---------5-8-----------|
D----------------------------------5-7---------7-5------------------|

G----------7------------5--------------------------------------|
D-------7-----7-----------5---------------5---------5555-7777--|
A--5-8-----------8-5--------5-3---------5---5------------------|
D----------------------------------5-7---------7-5-------------|

(00:52)

Refrão:
("You get taken all the.....")
G--------------------------------------------|
D---33333333---------------------------------|   (4x)
A------------5555--3333------------5555-3333-| 
D------------------------33333333------------|

(01:20) 

Verso 2:
G----------------------------------------------------------------5----5---5-|
D---------------------------------------------------------------------------|
A-5~--555----8~--888----3~--333---------------------8-8-8-----33---33---3---|
D---------------------------------5~--55----8-8-8---------------------------|

G----5----5---5----|
D------------------|
A-33---33---3------|
D------------------|

(01:33) 

Verso 2:
G----------------------------------------------------------------------------|
D---------------------------7~---------------------------3~------------------|
A---------10-10~---5-8-5-8------7-7--------6-6--0-3-0-3------3-3---0-3-5-----|
D------------------------------------------------------------------------0-0-|

G-------------------------------------------------------------------------|
D-------------------------------7777777------------------------33333333---|
A--1010101010101010*---8888888-----------77777777---66666666--------------|
D-------------------------------------------------------------------------|

G------------------------|
D------------------------|
A---33333333--55555555---|
D------------------------|

(02:02)

G----------7------------5------------------------------------7~-----|
D-------7-----7-----------5---------------5----------------7--------|
A--5-8-----------8-5--------5-3---------5---5---------5-8-----------|
D----------------------------------5-7---------7-5------------------|

G---------------------------------------|
D---------------------------------------|
A---5~--555---3~-333----------5~------3-|
D---------------------5~-555------5-7---|

G----------7------------5------------------------------------7~-----|
D-------7-----7-----------5---------------5----------------7--------|
A--5-8-----------8-5--------5-3---------5---5---------5-8-----------|
D----------------------------------5-7---------7-5------------------|

G----------7------------5--------------------------------------|
D-------7-----7-----------5---------------5---------5555-7777--|
A--5-8-----------8-5--------5-3---------5---5------------------|
D----------------------------------5-7---------7-5-------------|

(02:30) 

Refrão:
"You get taken..."
G--------------------------------------------|
D---33333333---------------------------------|   (5x)
A------------5555--3333------------5555-3333-|
D------------------------33333333------------|

on the 6th time when Julian repeats "I don't know why..." theres is a little variation,
just listen and you'll hear it

G----------------------------------------------------|
D----------------------------------------------------|
A------------5555--3333------------5-5-5-3-3-3-------|
D---33333333-------------33333333---------------3r---|
Composição de The Strokes
Colaboração e revisão:
  • Élison Duarte
2.122 exibições

0 comentários

Ver todos os comentários

Conseguiu tocar?

1 Tocaram 0 Ainda não

Grave um vídeo tocando Taken For a Fool e nos envie!

00:00 / 00:00
Outros vídeos desta música
Repetir Qualidade Automático
Outros vídeos desta música
00:00 / 00:00
Automático

Cifra Club Pro

Aproveite o Cifra Club com benefícios exclusivos e sem anúncios
Cifra Club Pro
Aproveite o Cifra Club com benefícios exclusivos e sem anúncios
OK