Enviar cifraEntrar

Under Cover of Darkness

The Strokes

Cifra: Principal
exibições 128.751
Tom: B
Intro: B  C#m
Guitarra 1  (2x)

          B                     B                        C#m                         C#m
E|-------------------|--------------------|----------------------------|-------------------------|
B|---------16--------|-----------16-------|--------17-17-16-16-14-12---|-------------------------|
G|-----------15--15--|-------------15--15-|----------------------------|----------16h18-16-13-16-|
D|16-16--------15----|-16-16---------15---|-18-18----------------------|--18-18------------------|
A|14-14--------------|-14-14--------------|-16-16----------------------|--16-16------------------|
E|-------------------|--------------------|----------------------------|-------------------------|


Guitarra 2 (Faça uma vez igual a guitarra 1, e na segunda vez faça igual abaixo)

         B                          B                      C#m                C#m
E|-------------------|-----------19----16---|----------------------------|-------------------------|
B|---------16--------|-------------19----16-|--------17-17-16-16-14-12---|-------------------------|
G|-----------15--15--|----------------------|----------------------------|----------16h18-16-13-16-|
D|16-16--------15----|-16-16----------------|-18-18----------------------|--18-18------------------|
A|14-14--------------|-14-14----------------|-16-16----------------------|--16-16------------------|
E|-------------------|----------------------|----------------------------|-------------------------|


 B
Slip back out of whack at your best
     Ebm
It's a nightmare
 G#m                 E   (E 12º)
So I'm joining the army

 B
Know how folks back out, I still call
 Ebm
Will you wait for me now?

 G#m                       C#m
We got the right to live, fight to use it
 G#m                       C#m
Got everything but you can just choose it
 B
I won't just be a puppet on a string

 G#m  E  B  F#
Don't go that way
 G#m  E  B  F#
I'll wait for you

  G#m
And I'm tired of all your friends
   E
Listening at your door
   B             F#
And I want, what's better for you
  G#m      E      B       F#
So long my friend and adversary
B
But I'll wait for you

( B  C#m)
Riff 2:

         B                          B                          C#m                C#m
E|-------------------|-----------19----16---|----------------------------|-------------------------|
B|---------16--------|-------------19----16-|--------17-17-16-16-14-12---|-------------------------|
G|-----------15--15--|----------------------|----------------------------|----------16h18-16-13-16-|
D|16-16--------15----|-16-16----------------|-18-18----------------------|--18-18------------------|
A|14-14--------------|-14-14----------------|-16-16----------------------|--16-16------------------|
E|-------------------|----------------------|----------------------------|-------------------------|


B
Get dressed jump out of bed and do it best
Ebm
Are you ok?
G#m                       C#m
I've been out around this town
G#m                           C#m        B
Everybody's singing the same song for ten years

 G#m   E   B  F#
I'll wait for you
 G#m   E   B  F#
Will you wait for me too?

 G#m
And they sacrifice their lives
 E
In our land are all closed eyes

 B                                              F#
I've been saying a billion times, and I'll say it again

 G#m     E   B  F#
So long, my ad- versary and friend


    Solo: C#m  Ebm  C#m  B  G  B  G#m  C#m  Ebm  C#m  B  Bb
E|----6-7--6-7-6-----6-7--6-7-6------6-7--6-7-6---6-9-7-12b-11----------------12b--|
B|--5-----5-----5---7----7-----7---5-----5-----5-4--------------12-9-11-12/14------|
G|---------------------------------------------------------------------------------|
D|---------------------------------------------------------------------------------|
A|---------------------------------------------------------------------------------|
E|---------------------------------------------------------------------------------|


E|-----11----------11-11-9-7--------6-7--6-7-6-----6-7--6-7-6-----6-7--6-7-6-------|
B|-7-12--9-11-12-14---------11-9-5-----5-----5---7----7-----7---5-----5------5-4-2-|
G|---------------------------------------------------------------------------------|
D|---------------------------------------------------------------------------------|
A|---------------------------------------------------------------------------------|
E|---------------------------------------------------------------------------------|


G#m   E   B  F#
Don't go that way
G#m   E   B  F#
I'll wait for you

 G#m
And I'm tired of all your friends
 E
Backing down your door
 B F#
Get up in the morning and give it your all
 G#m E B F#
So long my friend and adversary
 B
I'll be waiting for you
  • 1
  • 2
  • 3
  • 4
  • 5
  • 6
  • 7
  • 8
  • 9
  • 10
  • 11
  • 12
    Acordes para:
      Composição: The StrokesColaboração e revisão:

      0 comentários

        mostrar mais comentários

        Conseguiu tocar?

        42tocaram0ainda não

        Grave um vídeo tocando Under Cover of Darkness e mande pra gente!

        00:00 / 00:00
        outros vídeos desta música
        repetirqualidadeautomática
        • automática
        Outro vídeos desta música
          00:00 / 00:00
          automática
          • automática
          Acordes para:violão e guitarra
          dificuldadeexibiçõescontribuições
          2 versões de Tab de baixoexibiçõescontribuições
          1 versão de Guitar Proformatodownloadscontribuição
          fecharplay/pause subir/descer velocidade
            acordes
            fechar
            OK
            Feedback