Cifra Club

Great Dj

The Ting Tings

Cifra: Principal (violão e guitarra)
Tom: G
>> ATENÇÃO!! " quando forem consecutivos (dentro do compasso, lógico)      
                                                                                 
                                                                                 
Riff 1                                                                           
e|----2-2-2-2-2-2-2-2-2-2-2---2-2-2----------------------------------------|     
B|----3-3-3-3-3-3-3-3-3-3-3---3-3-3----------------------------------------|     
G|----2-2-2-2-2-2-2-2-3-3-3---3-3-3----------------------------------------|     
D|-------------------------------------------------------------------------|     
A|-------------------------------------------------------------------------|     
E|-------------------------------------------------------------------------|     
                                                                                 
Riff 2                                                                           
e|---------8-8-8-8---------10-10-10----------------------------------------|     
B|-----------------8-8-8-8----------10---10-10-10--------------------------|     
G|-------------------------------------------------------------------------|     
D|-------------------------------------------------------------------------|     
A|-------------------------------------------------------------------------|     
E|-------------------------------------------------------------------------|     
                                                                                 
Riff 3                                                                           
e|-------------------------------------------------------------------------|     
B|-------------------------------------------------------------------------|     
G|----9-9-9---9-9-9--------------------------------------------------------|     
D|-------------------------------------------------------------------------|     
A|-------------------------------------------------------------------------|     
E|-------------------------------------------------------------------------|                                                                                      

INTRODUÇÃO
Riff 1 (4x)
Riff 1 + Riff 3 (4x)

VERSO 1
(riff 3)
Fed up with your indegestion.
(riff 3)
Swallow words one by one.
(riff 3)
Your folks got high at a qaurter to five.
(riff 3)
Don't you feel your growing up undone.

VERSO 2
(riff 1 + riff 3)
Nothing but the local DJ.
(riff 1 + riff 3)
He said he had some songs to play.
(riff 1 + riff 3)
What went down from this fooling around.
(riff 1 + riff 3)
Gave hope and a brand new day.

REFRÃO
               (riff 2)
Imagine all the girls,
Ah ah, ah, ah, ah, ah, ah, ah.
   (riff2 + riff3)
And the boys,
Ah ah, ah, ah, ah, ah, ah, ah.
     (riff 2 + riff3)
And the strings,
Eee, eee, eee, eee, eee, eee, eee, eee.
       (riff 2 + riff 3 > riff 3 > riff 3)
And the drums, the drums, the drums, the drums, the drums, the drums, the drums, the drums, the drums, the drums, the drums, the drums.

Oh!

(Riff 1 + riff 3) 2x


VERSO 3
(riff 1 + riff 3)
Nothing was the same again.
(riff 1 + riff 3)
All about where and when.
(riff 1 + riff 3)
Blowing our minds in our life unkind.
(riff 1 + riff 3)
Gotta love the bpm.
(riff 1 + riff 3)
When his work was all but done
(riff 1 + riff 3)
Remember how all this begun.
(riff 1 + riff 3)
We wore his love like a hand in a glove.
(riff 1 + riff 3)
Where the future plays it all night long.



REFRÃO 3x
exibições 3.618
Acordes para:
    Composição: Julian De Martino / Katie White Colaboração e revisão:
    • Evelyn Pimenta

    0 comentários

    mostrar mais comentários

    Conseguiu tocar?

    3 tocaram 0 ainda não

    Grave um vídeo tocando Great Dj e mande pra gente!

    00:00 / 00:00
    outros vídeos desta música
    repetir qualidade Automático
    Outros vídeos desta música
    00:00 / 00:00
    Automático
    OK