Cifra Club

Aprenda

When You Leave

The Trews

Tab de baixo: Principal
Já pensou em usar uma coleção de roupas do Cifra Club? Responda as perguntas abaixo e nos ajude nessa missão! →
Tabbed By : avs_rock21
e-mail: *

Tuning: Standard

Intro:
G|---------|
D|---------|
A|-5-------|
E|---1-3-5-|

Verse:
G|---------|---------|---------|---------|---------|
D|-----4-7-|---------|-----4-7-|---------|-----4-7-|
A|-5-5-----|-----2-5-|-5-5-----|-----4-7-|-5-5-----|
E|---------|-3-3-----|---------|-5-5-----|---------|
     X8         X8        X8        X8        X8
G|---------|---------|---------|---------|---------|
D|---------|---------|-----4-7-|---------|-----4-7-|
A|-----2-5-|-----0-3-|-5-5-----|-----0-3-|-5-5-----|
E|-3-3-----|-1-1-----|---------|-1-1-----|---------|
     X4         X4        X4        X4        X4

That song is extremly fast, that's why I decided to rate it at intermediate because it's 
 I honestly worked up a sweat. haha.

Enjoy!

| /  slide up
| \  slide down
| h  hammer-on
| p  pull-off
| ~  vibrato
| +  harmonic
| x  Mute note
============================================================================
Compositor não encontrado.
74 exibições

0 comentários

Ver todos os comentários

Conseguiu tocar?

0 Tocaram 0 Ainda não

Grave um vídeo tocando When You Leave e nos envie!

00:00 / 00:00
Outros vídeos desta música
Repetir Qualidade Automático
Outros vídeos desta música
00:00 / 00:00
Automático

Cifra Club Pro

Aproveite o Cifra Club com benefícios exclusivos e sem anúncios
Cifra Club Pro
Aproveite o Cifra Club com benefícios exclusivos e sem anúncios
OK