Last January

The Twilight Sad

tom: G Afinação: E A D G B E
E|---------------------------0------|
B|-------0-------0-------0-------0--|
G|---0-------0-------0--------------|
D|-----2-------2-------2-------2----|
A|----------------------------------|
E|-0-------0-------0-------0--------| x2

E|---------------------------0-------------------------------0-----|
B|-------0-------0-------0-------0-------0-------0-------0-------0-|
G|---0-------0-------0---------------0-------0-------0-------------|
D|-----2-------2-------2-------2-------2-------2-------2-------2---|
A|-3-------3-------3-------3-------3-------3-----------------------|
E|-------------------------------------------------3-------3-------|


Chorus
======

E|---0-------0-------0-------0-----------2-------2------| H4-------4-|
B|-------0-------0-------0-------0---0-------0-------0-------0-----|
G|-------------------------------------0-------0-------0-------0---|
D|-----2-------2-------2-------2-----------------------------------|
A|-0-------0-------0-------0-------3-------3-------3-------3-------|
E|-----------------------------------------------------------------|

E|-------2-------2-------2-------2-------0-------0-------0-------0-|
B|---0-------0-------0-------0-------0-------0-------0-------0-----|
G|-----0-------0-------0-------0-------0-------0-------0-------0---|
D|-----------------------------------------------------------------|
A|-----------------------------------------------------------------|
E|-0-------0-------0-------0-------3-------3-------3-------3-------|


Transition
==========

E|-4---------2-----0---------0-----|
B|-------0-----0---------0-----0---|
G|-----0---------0-----0---------0-|
D|---------------------------------|
A|---------------------------------|
E|-0-------0-------0-------0-------| x2

E|-4---------2-----0---------0-----4---------2-----0---------0-----|
B|-------0-----0---------0-----0---------0-----0---------0-----0---|
G|-----0---------0-----0---------0-----0---------0-----0---------0-|
D|-----------------------------------------------------------------|
A|-3-------3-------3-------3-------3-------3-----------------------|
E|-------------------------------------------------3-------3-------|


Ending
======

E|-------2-------2-------2-------2-------0-------0-------0-------0-|
B|---0-------0-------0-------0-------0-------0-------0-------0-----|
G|-----0-------0-------0-------0-------0-------0-------0-------0---|
D|---------------------------------0-------0-------0-------0-------|
A|-----------------------------------------------------------------|
E|-0-------0-------0-------0---------------------------------------| final chorus end
                           
E|-4---------2-----0---------0-----4---------2-----0---------0-----|
B|-------0-----0---------0-----0---------0-----0---------0-----0---|
G|-----0---------0-----0---------0-----0---------0-----0---------0-|
D|-----------------------------------------------------------------|
A|-0-------0-------0-------0-------3-------3-------3-------3-------|
E|-----------------------------------------------------------------|

E|-4---------2-----0---------0-----4---------2-----0---------0-----|
B|-------0-----0---------0-----0---------0-----0---------0-----0---|
G|-----0---------0-----0---------0-----0---------0-----0---------0-|
D|-----------------------------------------------------------------|
A|-2-------2-------2-------2---------------------------------------|
E|---------------------------------3-------3-------3-------3-------|
Página 1 / 1

Letras e título
Acordes e artista

resetar configurações
OK