Cifra Club

Aprenda

A Martyr For My Love For You

The White Stripes

Cifra: Principal (violão e guitarra)
Tom: G
(intro) Am Em

(versos) Am Em D C

(refrão) D A C G

E|--------------------------|
B|---------------0--or 1----|
G|---2-4-5--4-2-0-----------|
D|--2-----------------------| (almost all the verse)
A|--------------------------|
E|--------------------------|

E|----------------|
B|----------------|
G|-2-4-5-4-2-4-0--|
D|----------------|(sometimes Jack plays that)
A|----------------|
E|----------------|

(chorus)

E|-------------------------------|
B|-------------------------------|
G|-7-7-----------5-5-------------|
D|-7-7----7-7----5-5----5-5------|
A|-5-5----7-7----3-3----5-5------|
E|--------5-5-----------3-3------|

(verse)

E|--------------------------|
B|---------------0--or 1----|
G|---2-4-5--4-2-0-----------|
D|--2-----------------------| (all the verse)
A|--------------------------|
E|--------------------------|

E|----------------|
B|----------------|
G|-2-4-5-4-2-4-0--| (sometimes)
A|----------------|
E|----------------|

E|----------------------------------------------|
B|----------------------------------------------|
G|----------------------------------------------|
D|--7-7--9-10-9-7-5--7---7-7--9-10-9-7-5--7-----|
A|--7-7--9-10-9-7-5--7---7-7--9-10-9-7-5--7-----|
E|--5-5--7-8--7-5-3--5---5-5--7-8--7-5-3--5-----|

E|--------------------------|
B|---------------0--or 1----|
G|---2-4-5--4-2-0-----------|
D|--2-----------------------| (all the verse)
A|--------------------------|
E|--------------------------|

(chorus)

E|-------------------------------|
B|-------------------------------|
G|-7-7-----------5-5-------------|
D|-7-7----7-7----5-5----5-5------|
A|-5-5----7-7----3-3----5-5------|
E|--------5-5-----------3-3------|

(verse)

E|--------------------------|
B|---------------0--or 1----|
G|---2-4-5--4-2-0-----------|
D|--2-----------------------| (all the verse)
A|--------------------------|
E|--------------------------|

E|----------------|
B|----------------|
G|-2-4-5-4-2-4-0--|
D|----------------|(sometimes)
A|----------------|
E|----------------|

( D )
Composição de Jack White
Colaboração e revisão:
  • Kauana Botelho
3.777 exibições
    • ½ Tom
    • A
    • Bb
    • B
    • C
    • Db
    • D
    • Eb
    • E
    • F
    • F#
    • G
    • Ab
  • Adicionar à lista

    0 comentários

    Mostrar mais comentários

    Conseguiu tocar?

    0 Tocaram 0 Ainda não

    Grave um vídeo tocando A Martyr For My Love For You e mande pra gente!

    00:00 / 00:00
    outros vídeos desta música
    repetir qualidade Automático
    Outros vídeos desta música
    00:00 / 00:00
    Automático

    Cifra Club Pro

    Aproveite o Cifra Club com benefícios exclusivos e sem anúncios
    Cifra Club Pro
    Aproveite o Cifra Club com benefícios exclusivos e sem anúncios
    OK