Cifra Club

Aprenda

Ball And Biscuit

The White Stripes

Cifra: Principal (violão e guitarra)
Tom: E
BAR 1   (E)         BAR 2       (E) 
E|------------------------|-----------------------| 
B|-------5--3--5----------|-------5--3--5---------| 
G|-------4--2--4------2---|-------4--2--4------2--| 
D|--------------------2---|--------------------2--| 
A|--2---------------------|--2--------------------| 
E|--0---------------------|--0--------------------| 
 
     BAR 3      (E)              BAR 4  (E) 
E|------------------------|-----------------------| 
B|-------5--3--5----------|-------5--3--5---------| 
G|-------4--2--4------2---|-------4--2--4------2--| 
D|--------------------2---|--------------------2--| 
A|--2---------------------|--2--------------------| 
E|--0---------------------|--0--------------------| 
 
    BAR 5       (A)              BAR 6 (A) 
E|-----------------------|------------------------| 
B|---2---0-2-0-2-0-2-0---|---2---0-2-0-2-0-2-0----| 
G|---2---0-2-0-2-0-2-0---|---2---0-2-0-2-0-2-0--0-| 
D|---2---0-2-0-2-0-2-0---|---2---0-2-0-2-0-2-0--0-| 
A|---0-------------------|---0--------------------| 
E|-----------------------|------------------------| 
 
    BAR 7       (E)              BAR 8  (E) 
E|------------------------|-----------------------| 
B|-------5--3--5----------|-------5--3--5---------| 
G|-------4--2--4------2---|-------4--2--4------2--| 
D|--------------------2---|--------------------2--| 
A|--2---------------------|--2--------------------| 
E|--0---------------------|--0--------------------| 
 
    BAR 9 (B)                BAR 10 (A) 
E|------------------------|-------------------------| 
B|------------------------|-------------------------| 
G|---4--4--4--4--4--4--4--|---2--0--2--0--2--0------| 
D|---4--4--4--4--4--4--4--|---2--0--2--0--2--0---2--| 
A|---2--2--0--2--0--2--0--|---0--0--0--0--0--0---2--| 
E|------------------------|-------------------------| 
 
    BAR 11 (E)    BAR 12 (E) 
E|------------------------|-----------------------| 
B|-------5--3--5----------|-------5--3--5---------| 
G|-------4--2--4------2---|-------4--2--4------2--| 
D|--------------------2---|--------------------2--| 
A|--2---------------------|--2--------------------| 
E|--0---------------------|--0--------------------| 

E|------0-----0-----0-----0-0-0-------| 
B|----0-----0-----0-------0-0-0-------| 
G|--4-----3-----2-----0h1-------------| 
D|------------------------------------| 
A|--------------------------------2---| 
E|--------------------------------0---| 

To end the chorus, play: 
A|------------------------------- 
E|---4--4--5--5--6--6--7---0--0-- 
...and then back into the verses.
Composição de Jack White III
Colaboração e revisão:
  • Ludmilla Correa
11.527 exibições
    • ½ Tom
    • A
    • Bb
    • B
    • C
    • Db
    • D
    • Eb
    • E
    • F
    • F#
    • G
    • Ab
  • Adicionar à lista

    0 comentários

    Mostrar mais comentários

    Conseguiu tocar?

    1 Tocaram 0 Ainda não

    Grave um vídeo tocando Ball And Biscuit e mande pra gente!

    00:00 / 00:00
    outros vídeos desta música
    repetir qualidade Automático
    Outros vídeos desta música
    00:00 / 00:00
    Automático

    Cifra Club Pro

    Aproveite o Cifra Club com benefícios exclusivos e sem anúncios
    Cifra Club Pro
    Aproveite o Cifra Club com benefícios exclusivos e sem anúncios
    OK