Cifra Club

Aprenda

I Think I Smell a Rat

The White Stripes

Cifra: Principal (violão e guitarra)
Tom: C
INTRO
E|-5-7-8-7-5-4-5---|
B|-5---------------|
G|-5---------------|
D|-5---------------|
A|-----------------|
E|-----------------|
     
E|---------------|
B|---------------|
G|---------------|
D|---------------|
A|--7-7-7--5--7--|
E|--5-5-5--3--5--|

E|--5-7-8-7-5-4-5----|
B|--5----------------|
G|--5----------------|
D|--5----------------|
A|-------------------|
E|-------------------|

E|---------------|
B|---------------|
G|---------------|
D|---------------|
A|--7-7-7--5--7--|
E|--5-5-5--3--5--|

E|------------------|
B|--5--6-8-6-5--3-5-|
G|--5---------------|
D|--5---------------|
A|------------------|
E|------------------|

E|---------------|
B|---------------|
G|---------------|
D|---------------|
A|--7-7-7--5--7--|
E|--5-5-5--3--5--|

E|----------|
B|----------|
G|----------|
D|----------|
A|--7-7--7--|
E|--5-5--5--|
Composição de Jack White / Meg White
Colaboração e revisão:
  • Emanuel cardoso
8.936 exibições
    • ½ Tom
    • A
    • Bb
    • B
    • C
    • Db
    • D
    • Eb
    • E
    • F
    • F#
    • G
    • Ab
  • Adicionar à lista

    0 comentários

    Mostrar mais comentários

    Conseguiu tocar?

    2 Tocaram 0 Ainda não

    Grave um vídeo tocando I Think I Smell a Rat e mande pra gente!

    00:00 / 00:00
    outros vídeos desta música
    repetir qualidade Automático
    Outros vídeos desta música
    00:00 / 00:00
    Automático

    Cifra Club Pro

    Aproveite o Cifra Club com benefícios exclusivos e sem anúncios
    Cifra Club Pro
    Aproveite o Cifra Club com benefícios exclusivos e sem anúncios
    OK