Seven Nation Army

The White Stripes

Composição: Jack White
Tom: E
[Introdução] 

  P.M  .  . .  .  .     .
E|-----------------------------------------------------|
B|-----------------------------------------------------|
G|-----------------------------------------------------|
D|-----------------------------------------------------|
A|-7---7-10-7--5--3-----2------------------------------|
E|-----------------------------------------------------|


[Primeira Parte]

I'm going to fight them off
A seven nation army 
Couldn't hold me back
They're gonna rip it off
Taking their time 
Right behind my back
And I'm talking to myself at night
Because I can't forget
Back and forth through my mind
Behind a cigarette


[Pré-Refrão]

         G5                    A5
And the message coming from my eyes

Says: Leave it alone


[Refrão]

E|-----------------------------------------------------|
B|-----------------------------------------------------|
G|-9---9-12-9--7--5-----4------------------------------|
D|-----------------------------------------------------|
A|-7---7-10-7--5--3-----2------------------------------|
E|-----------------------------------------------------|

E|-----------------------------------------------------|
B|-----------------------------------------------------|
G|-9---9-12-9--7--5--7--5--4---------------------------|
D|-----------------------------------------------------|
A|-7---7-10-7--5--3--5--3--2---------------------------|
E|-----------------------------------------------------|


[Segunda Parte]

  P.M  .  . .  .  .     .
E|-----------------------------------------------------|
B|-----------------------------------------------------|
G|-----------------------------------------------------|
D|-----------------------------------------------------|
A|-7---7-10-7--5--3-----2------------------------------|
E|-----------------------------------------------------|

Don't want to hear about it
Every single one's 
Got a story to tell
Everyone knows about it
From the Queen of England 
To the hounds of hell
And if I catch it coming back my way
I'm gonna serve it to you
And that ain't what you want to hear
But that's what I'll do


[Pré-Refrão]

         G5                     A5
And the feeling coming from my bones

Says: Find a home


[Solo]

E|-----------------------------------------------------|
B|-----------------------------------------------------|
G|-9~~---------12----11---9~~-9-12-14-12-12-14-12-11---|
D|-----------------------------------------------------|
A|-----------------------------------------------------|
E|-----------------------------------------------------|

E|-----------------------------------------------------|
B|-----------------------------------------------------|
G|-9~~----11-9-12----11---9~~-9-12-14-12-12-14-12-11---|
D|-----------------------------------------------------|
A|-----------------------------------------------------|
E|-----------------------------------------------------|

E|-12-----12-15-12---12--15---14-----------------------|
B|-----------------------------------------------------|
G|-----------------------------------------------------|
D|-----------------------------------------------------|
A|-----------------------------------------------------|
E|-----------------------------------------------------|

E|-12~~-12-15-17-15-15-17-15-14------------------------|
B|-----------------------------------------------------|
G|-----------------------------------------------------|
D|-----------------------------------------------------|
A|-----------------------------------------------------|
E|-----------------------------------------------------|

E|-12-----12-15-12---12--15b17r--15--------------------|
B|-----------------------------------------------------|
G|-----------------------------------------------------|
D|-----------------------------------------------------|
A|-----------------------------------------------------|
E|-----------------------------------------------------|

E|-12-----12-14-12---12-14-12--------------------------|
B|------------------------------13-12------------------|
G|-----------------------------------------------------|
D|-----------------------------------------------------|
A|-----------------------------------------------------|
E|-----------------------------------------------------|


( G5  A5 )


[Terceira Parte]

  P.M  .  . .  .  .     .
E|-----------------------------------------------------|
B|-----------------------------------------------------|
G|-----------------------------------------------------|
D|-----------------------------------------------------|
A|-7---7-10-7--5--3-----2------------------------------|
E|-----------------------------------------------------|

I'm going to Wichita
Far from this opera forevermore
I'm gonna work the straw
Make the sweat drip 
Out of every pore
And I'm bleeding
And I'm bleeding
And I'm bleeding 
Right before the Lord
All the words are gonna bleed from me
And I will think no more


[Pré-Refrão]

          G5                    A5
And the stains coming from my blood

Tell me: Go back home


[Refrão]

E|-----------------------------------------------------|
B|-----------------------------------------------------|
G|-9---9-12-9--7--5-----4------------------------------|
D|-----------------------------------------------------|
A|-7---7-10-7--5--3-----2------------------------------|
E|-----------------------------------------------------|

E|-----------------------------------------------------|
B|-----------------------------------------------------|
G|-9---9-12-9--7--5--7--5--4---------------------------|
D|-----------------------------------------------------|
A|-7---7-10-7--5--3--5--3--2---------------------------|
E|-----------------------------------------------------|
Página 1 / 1

Letras e título
Acordes e artista

resetar configurações
OK