Cifra Club

Aprenda

Baba O'riley (acoustic)

The Who

Cifra: Principal (violão e guitarra)
Tom: E
Guitar 1:

     E          A              E          A          G#         A2
e|--0-0-0-0-0--0-0-0-0-0--     0-0-0-0-0--0-0-0-0-0--0-0-0-0-0--0-0-0-0-0--|
G|--0-0-0-0-0--0-0-0-0-0--     0-0-0-0-0--0-0-0-0-0--0-0-0-0-0--0-0-0-0-0--|
B|--1-1-1-1-1--2-2-2-2-2-- x2  1-1-1-1-1--2-2-2-2-2--4-4-4-4-4--6-6-6-6-6--| x1
D|--2-2-----2--4-4-----4--     2-2-----2--4-4-----4--6-6-----6--7-7-----7--|
A|--2-2-----2--4-4-----4--     2-2-----2--4-4-----4--6-6-----6--7-7-----7--|
E|--0----------0----------     0----------0----------0----------0----------|

E                         A    E                      A
   Out here in the fields          I fight for my meals
E               A               G#       A2
   I get my back into my living
E                         A    E                      A
   I don't need to fight            To prove I'm right
E             A        G#                 A2
   I don't need to be forgiven yeah, yeah, yeah, yeah, yeah

     E        B A2            B2             B2
e|--0-0-0-0-0--0-0-0-0-0-0     7-7-7-7-7      7--|
G|--0-0-0-0-0--0-0-0-0-0-0     7-7-7-7-7      7--|
B|--1-1-1-1-1--8-6-6-6-6-6 x3  8-8-8-8-8 x3   8--| x1
D|--2-2-----2--9-7-7-----7     9-9-----9      9--|
A|--2-2-----2--9-7-7-----7     9-9-----9      9--|
E|--0----------0-0--------     7--------      7--|

B2           B2      B2                      B2
Don't cry            Don't raise your eye
B2          B2                  B2          B2
       It's only   teenage wasteland

E                         A    E                               A
   Sally, take my hand           We'll travel south cross land
E                        A                             G#       A2
   Put out the fire   And don't look past my shoulder
E                         A    E                               A
   The exodus is here                 The happy ones are near
E                       A                             G#       A2
   Let's get together     Before we get much older

   E      A      G#     A2
e|--0-0-0--0-0-0--0-0-0--0--|
G|--0--0-0-0--0-0-0--0-0-0--|
B|--1------2------4------6--| x1
D|--2------4------6------7--|
A|--2------4------6------7--|
E|--0------0------0------0--|

        E                       B   A2
Teenage wasteland
                  E                       B   A2
It's only teenage wasteland
       E                       B    A2
Teenage wasteland              Oh, yeah
       E                       B     A2
Teenage wasteland
                 B2
They're all wasted!

Guitar 2:

e|---------------|
G|----4----4-4---|
B|-----4----4-4--| (during verse)
D|---------------|
A|---------------|
E|---------------|

e|---------------|
G|----444--4-4---|
B|---4----4-4-4--| (during the "don't cry..." part)
D|---------------|
A|---------------|
E|---------------|
Colaboração e revisão:
  • Élison Duarte
20.895 exibições
    • ½ Tom
    • A
    • Bb
    • B
    • C
    • Db
    • D
    • Eb
    • E
    • F
    • F#
    • G
    • Ab
  • Adicionar à lista

    0 comentários

    Mostrar mais comentários

    Conseguiu tocar?

    6 Tocaram 0 Ainda não

    Grave um vídeo tocando Baba O'riley (acoustic) e mande pra gente!

    00:00 / 00:00
    outros vídeos desta música
    repetir qualidade Automático
    Outros vídeos desta música
    00:00 / 00:00
    Automático

    Cifra Club Pro

    Aproveite o Cifra Club com benefícios exclusivos e sem anúncios
    Cifra Club Pro
    Aproveite o Cifra Club com benefícios exclusivos e sem anúncios
    OK