Notificações Amigos pendentes

      The Who

      My Generation Solo

      2.172 exibições
      I am pretty sure that these are the right tabs, it's just the speed
      that is hard, not the tabs. So have fun!
      
      Solo
      |---3-5---5-5-3---3-----------|
      |-5-------------5----5-3---3--|
      |------------------------5---5|
      |-----------------------------|
      
      
      |------------------|
      |-5-5-5-5--3-3-3-3-|
      |------------------|
      |------------------|
      
      |--------------------------|
      |-5-5-3----------------3-4-|
      |-------5-5-3------3-5-----|
      |--------------6-3---------|
      
      |------------------|
      |-5-5-5-5--3-3-3-3-|
      |------------------|
      |------------------|
      
      |---3-5--5-3-3------------------|
      |-5-------------5-3---3---------|
      |-------------------5---5-3-----|
      |-----------------------------6-|
      
      |------------------|
      |-5-5-5-5--3-3-3-3-|
      |------------------|
      |------------------|
      
      And that is the solo!

      Comentários 0

      140 .
      140 cancelar

      conseguiu tocar?

      covers

      Grave um vídeo tocando My Generation Solo e mande pra gente!

      Ex.: http://www.youtube.com/watch?v=0IvSvIwGdwk
      ver covers de outras músicas »
      0:00 / 0:00

      Capítulos

        1 versão de baixo exibições contribuição e correção
        play/pausefechar subir/descer velocidade
        6ª corda E5ª corda A4ª corda D3ª corda G2ª corda B1ª corda E
          acordes
          publicidade
          fechar
          ok