Islands

The XX

Composição de: Oliver Sim
tom: E
Intro e Verso 1 - 3x:

E|--------------------------------------|
B|--------------------------------------|
G|---8---6-----4-----4------------------|
D|-6---4---2-2---2-2---2-----6-----4---9|
A|-----------------------4-4---0-2---7--|
E|--------------------------------------|

E|-------------------------------------|
B|-------------------------------------|
G|---8---11-----6-----4----------------|
D|-6---9----4-4---4-2-------6-----6---9|
A|----------------------4-4---4-4---7--|
E|-------------------------------------|

Refrão:

E|-------------------------------------------------------------|
B|------------------------------4-4-4-4-4-4-4-4-4-4-4-4-4-4-4-4|
G|1-1-1-1-1-1-1-1-1-1-1-1-1-1-1-4-4-4-4-4-4-4-4-4-4-4-4-4-4-4-4|
D|2-2-2-2-2-2-2-2-2-2-2-2-2-2-2--------------------------------|
A|-------------------------------------------------------------|
E|-------------------------------------------------------------|

E|------------------------------------------------|
B|------------------------------------------------|
G|4-4-4-4-4-4-4-4-4-4-4-4-4-4-4-4---------------4-|
D|6-6-6-6-6-6-6-6-6-6-6-6-6-6-6-6-6-6-6-6-6-6-6-6-|
A|--------------------------------4-4-4-4-4-4-4---|
E|------------------------------------------------|

Verso 2 - 2x:

E|--------------------------------------------------|
B|--------------------------------------------------|
G|--------------------------------------------------|
D|6-6/9-9/11-----------------6-6\4-4\2--------------|
A|--------------------------------------------------|
E|--------------------------------------------------|

Refrão 2x:

E|-------------------------------------------------------------|
B|------------------------------4-4-4-4-4-4-4-4-4-4-4-4-4-4-4-4|
G|1-1-1-1-1-1-1-1-1-1-1-1-1-1-1-4-4-4-4-4-4-4-4-4-4-4-4-4-4-4-4|
D|2-2-2-2-2-2-2-2-2-2-2-2-2-2-2--------------------------------|
A|-------------------------------------------------------------|
E|-------------------------------------------------------------|

E|------------------------------------------------|
B|------------------------------------------------|
G|4-4-4-4-4-4-4-4-4-4-4-4-4-4-4-4---------------4-|
D|6-6-6-6-6-6-6-6-6-6-6-6-6-6-6-6-6-6-6-6-6-6-6-6-|
A|--------------------------------4-4-4-4-4-4-4---|
E|------------------------------------------------|

Refrão:
E|-------------------------------------------------------------|
B|------------------------------4-4-4-4-4-4-4-4-4-4-4-4-4-4-4-4|
G|1-1-1-1-1-1-1-1-1-1-1-1-1-1-1-4-4-4-4-4-4-4-4-4-4-4-4-4-4-4-4|
D|2-2-2-2-2-2-2-2-2-2-2-2-2-2-2--------------------------------|
A|-------------------------------------------------------------|
E|-------------------------------------------------------------|

Solo:

E|------------------------------------------------|
B|------------------------------------------------|
G|--------8---8-----------8---8-------------------|
D|--6---6---9---9---6---6---9---9-----------------|
A|7---7-----------7---7---------------------------|
E|------------------------------------------------|

E|------------------------------------------------|
B|------------------------------------------------|
G|--------4---4-----------4---4-------------------|
D|--6---6---6---6---6---6---6---6-----------------|
A|4---4-----------4---4---------------------------|
E|------------------------------------------------|

E|------------------------------------------------|
B|------------------------------------------------|
G|--------8---8-----------8---8-------------------|
D|--6---6---9---9---6---6---9---9-----------------|
A|7---7-----------7---7---------------------------|
E|------------------------------------------------|

E|------------------------------------------------|
B|------------------------------------------------|
G|--------4---4---4---4---4---4---4---4---4---4---|
D|--6---6---6---6---6---6---6---6---6---6---6---6-|
A|4---4-------------------------------------------|
E|------------------------------------------------|

E|------------------------------------------------|
B|----------------4---4---4---4---4---4---4---4---|
G|4---4---4---4-----4---4---4---4---4---4---4---4-|
D|--6---6---6---6---------------------------------|
A|------------------------------------------------|
E|------------------------------------------------|

E|------------------------------------------------|
B|------------------------------------------------|
G|4---4---4---4---4---4---4---4---4---4---4---4---|
D|--6---6---6---6---6---6---6---6---6---6---6---6-|
A|------------------------------------------------|
E|------------------------------------------------|
Página 1 / 1

Letras e título
Acordes e artista

resetar configurações
OK