Islands

The XX

Composição de: Oliver Sim
Intro
G|---------------------------------------------------------|
D|-------------6------4-------9----------------------------|
A|---------4-4---4--2---2-2/7------------------------------|
E|------------------------------0-0-0-0--------------------|

G|---------------------------------------------------------|
D|-------------6--------6-------9--------------------------|
A|---------4-4---4--4-4---4-4/7----------------------------|
E|--------------------------------0-0-0-0------------------|


Verse 1
G|---------------------------------------------------------|  
D|-------------6------4-------9----------------------------|        
A|---------4-4---4--2---2-2/7------------------------------|   
E|------------------------------0-0-0-0--------------------|   
                                                                (2x)
G|---------------------------------------------------------|   
D|-------------6--------6-------9--------------------------|    
A|---------4-4---4--4-4---4-4/7----------------------------|    
E|--------------------------------0-0-0-0------------------|  


Chorus
G|----------------------------------------------------------------------------------|
D|----------------------------------------------------------------------------------|
A|-7-7-7-7-7-7-7-7-7-7-7-7-7-7-7-7--11-11-11-11-11-11-11-11-11-11-11-11-11-11-11-11-|
E|----------------------------------------------------------------------------------|

G|----------------------------------------------------------------------------------|
D|----------------------------------------------------------------------------------|
A|-4-4-4-4-4-4-4-4-4-4-4-4-4-4-4-4--2-2-2-2-2-2-2-2--4------------------------------|
E|----------------------------------------------------------------------------------|

Verse 2
G|---------------------------------------------------------|  
D|--6-6\4-4\2-------6------4-------9-----------------------|     
A|--------------4-4---4--2---2-2/7-------------------------|     
E|-----------------------------------0-0-0-0---------------|    
                                                                (2x)
G|---------------------------------------------------------|     
D|--6-6/9-9/11-------6--------6-------9--------------------|    
A|---------------4-4---4--4-4---4-4/7----------------------|    
E|--------------------------------------0-0-0-0------------|  


Chorus  x2
G|----------------------------------------------------------------------------------|
D|----------------------------------------------------------------------------------|
A|-7-7-7-7-7-7-7-7-7-7-7-7-7-7-7-7--11-11-11-11-11-11-11-11-11-11-11-11-11-11-11-11-|
E|----------------------------------------------------------------------------------|

G|----------------------------------------------------------------------------------|
D|----------------------------------------------------------------------------------|
A|-4-4-4-4-4-4-4-4-4-4-4-4-4-4-4-4--2-2-2-2-2-2-2-2--4------------------------------|
E|----------------------------------------------------------------------------------|


        Break


Chorus x1
G|----------------------------------------------------------------------------------|
D|----------------------------------------------------------------------------------|
A|-7-7-7-7-7-7-7-7-7-7-7-7-7-7-7-7--11-11-11-11-11-11-11-11-11-11-11-11-11-11-11-11-|
E|----------------------------------------------------------------------------------|

G|----------------------------------------------------------------------------------|
D|----------------------------------------------------------------------------------|
A|-4-4-4-4-4-4-4-4-4-4-4-4-4-4-4-4--2-2-2-2-2-2-2-2--4------------------------------|
E|----------------------------------------------------------------------------------|
Página 1 / 1

Letras e título
Acordes e artista

resetar configurações
OK