Open Eyes

The XX

tom: B
Intro e Verso
E|----------------------------------|
B|----------------------------------|
G|----------------------------------|
D|---7----4----4--------------------|
A|-5----2----0------5---------------|
E|----------------3-----------------|

Refrão
 G, E, G   F#
E|----------------------------------|
B|----------------------------------|
G|----------------------------------|
D|----------------------------------|
A|----------------------------------|
E|-3-0-3-2--------------------------|

E|--------------------------|--------------------------|
B|--------------------------|--------------------------|
G|--------------------------|--------------------------|
D|-7-7-7/9-9-7--7--7-7--7-7-|-7-7-7/9-9-7--4--4-4--4-4-|
A|--------------5--5-5--5-5-|--------------2--2-2--2-2-|
E|--------------------------|--------------------------|

E|--------------------------|--------------------------|
B|--------------------------|--------------------------|
G|--------------------------|--------------------------|
D|-7-7-7/9-9-7--------------|-7-7-7/9-9-7--------------|
A|--------------5--5-5--5-5-|--------------5--5-5--5-5-|
E|--------------3--3-3--3-3-|--------------3--3-3--3-3-|
Página 1 / 1

Letras e título
Acordes e artista

resetar configurações
OK