Elephants

Them Crooked Vultures

Composição de: Them Crooked Vultures
tom: D
(intro)
E |--------------------------------------------------------------------|
B |---------------------1-3--------------------1-3---------------------|
G |-------------------3----------------------3-------------------------|
D |---------2p0--3p0---------------2p0--3p0----------------------------|
A |------1-----1----1-----------1-----1----1---------------------------|
E |---3---3------------------3---3-------------------------------------|

E |--------------------------------------------------------------------|
B |--------------------------------------------------------------------|
G |------------0-0--------------------0-0-------0-0-------0-0----------|
D |-------3p0--0-0---------------3p0--0-0-------0-0-------0-0----------|
A |----1h3---3-----3p1--------1h3---3-----3p1-------3p1-------3p1------|
E |--3-----------------3--3-3-----------------3---------3---------3----|

E |--------------------------------------------------------------------|
B |--------------------------------------------------------------------|
G |--0-0x--0-0x--0x--0x--0x--0x----------------------------------------|
D |--0-0x--0-0x--0x--0x--0x--0x----------------------------------------| (2x)
A |--------------------------------------------------------------------|
E |--------------------------------------------------------------------|

E |--------------------------------------------------------------------|
B |---------------------1-3--------------------1-3---------------------|
G |-------------------3----------------------3-------------------------|
D |---------2p0--3p0---------------2p0--3p0----------------------------| (2x)
A |------1-----1----1-----------1-----1----1---------------------------|
E |---3---3------------------3---3-------------------------------------|

E |--------------------------------------------------------------------|
B |-----------3/----------3/----------3/----------3/-------------------|
G |-------3-5---------3-5---------3-5---------3-5----------------------|
D |--------------------------------------------------------------------|
A |--------------------------------------------------------------------|
E |---3-3---------3-3---------3-3---------3-3--------------------------|

(riff principal)
E |--------------------------------------------------------------------|
B |---3--6--8--11b-3--6--8--11b-3--6--8--11b--3-6-8--6-6/8-8\6-6\3-3~--|
G |---x--x--x--x---x--x--x--x---x--x--x--x----x-x-x--------------------|
D |---0--0--0--0---0--0--0--0---0--0--0--0----0-0-0--------------------|
A |--------------------------------------------------------------------|
E |--------------------------------------------------------------------|

E |--------------------------------------------------------------------|
B |-------------------------6-6/8-8\6-6\3-3~-3//11-11~-----------------|
G |---3/7-7\6-6\3-3~---------------------------------------------------|
D |--------------------------------------------------------------------| (2x)
A |--------------------------------------------------------------------|
E |-------------------------[2nd time]---------------------------------|

E |--------------------------------------------------------------------|
B |----------------------------------------6--6h8p6--------------------|
G |-------------------------------------6h7--------7--7\6--6\3/6-etc---|
D |---5--8--10-8--5--8--10-8--5--8--10---------------------------------|
A |---5--8--10-8--5--8--10-8--5--8--10---------------------------------|
E |---3--6--8--6--3--6--8--6--3--6--8----------------------------------|

(refrão)
E |--------------------------------------------------------------------|
B |---5--5--5-5--5--5-5--5--5--5-5-------------------------------------|
G |---5--5--5-5--5--5-5--5--5--5-5-------------------------------------|
D |---x--x--x-x--x--x-x--x--x--x-x-------------------------------------|
A |---3--3--3-3--3--3-3--3--3--3-3---5-7-8-7-7/10-7~-------------------|
E |--------------------------------------------------------------------|

E |--------------------------------------------------------------------|
B |--------------------------------------------------------------------|
G |--------------------------------------------------------------------|
D |---7~ 7-7-5/7-7--8--7--5--------------------------------------------| (2x)
A |--------------------------8--5-7-8-7-7/10-7~------------------------|
E |--------------------------------------------------------------------|

E |--------------------------------------------------------------------|
B |---5~--5--5-5--5-x--3~--3--3-3--3--3--------------------------------|
G |---5~--5--5-5--5-x--3~--3--3-3--3--3--------------------------------|
D |---x~--x--x-x--x-x--x~--x--x-x--x--x--7--8\7--8\7-------------------|
A |---3~--3--3-3--3-x--1~--1--1-1--1--1--7--8\7--8\7-------------------|
E |--------------------------------------5--6\5--6\5-------------------|

E |--------------------------------------------------------------------|
B |-3--6--8--11b-3--6--8--11b-3--6--8--11b--3-6-8-6---------------1-3--|
G |-x--x--x--x---x--x--x--x---x--x--x--x----x-x-x-x--------------3-----|
D |-0--0--0--0---0--0--0--0---0--0--0--0----0-0-0-0-----2p0--3p0-------|
A |---------------------------------------------------1----1----1------|
E |-------------------------------------------------3--3---------------|
Página 1 / 1

Letras e título
Acordes e artista

resetar configurações
OK