Cifra Club

Aprenda

Better Off

Theory Of A Deadman

Cifra: Principal (violão e guitarra)
Tom: C
Tabbed By: Robert McKay (T*)


Tuning 1/2 Step Down

Intro
 
|-------------------------------|---------------------------------|
|-------------------------------|---------------------------------|
|-------------7-7-7-------------|-------------7-7-7---------------|
|--7-7-7-7-7--7-7-7-------------|--7-7-7-7-7--7-7-7---------------|
|--7-7-7-7-7--5-5-5--0--3--3h5--|--7-7-7-7-7--5-5-5--0--3b~--3b~--|
|--5-5-5-5-5--------------------|--5-5-5-5-5----------------------|


|--------------------------------|----------------|
|--------------------------------|----------------|
|-------------7-7-7--------------|-------------7--|
|--7-7-7-7-7--7-7-7--------------|--7-7-7-7-7--7--|
|--7-7-7-7-7--5-5-5--0--3-3-3h5--|--7-7-7-7-7--5--|
|--5-5-5-5-5---------------------|--5-5-5-5-5-----|


Verse

|-----------------------------|
|-----------------------------|
|-------5--7----5-------5-----|
|--7----5--7----5--3----5--5--|X2
|--7----3--5----3--3----3--5--|
|--5---------------1-------3--|
                                            |PM on 3Time  |
|-----------------------------------------------------------|
|-----------------------------------------------------------|
|---------5--7-7-7-7-7---5--------------5-------------------|
|--7-7-7--5--7-7-7-7-7---5--3-3-3-3-3---5--5-5-5-5-5-5-5-5--|X2
|--7-7-7--3--5-5-5-5-5---3--3-3-3-3-3---3--5-5-5-5-5-5-5-5--|
|--5-5-5--------------------1-1-1-1-1------3-3-3-3-3-3-3-3--|


Chorus

|---------------------------------|------------------------------|
|---------------------------------|------------------------------|
|-------------7-7-7---------------|-------------5-5-5------------|
|--7-7-7-7-7--7-7-7---------------|--7-7-7-7-7--5-5-5--5-5-5-5---|
|--7-7-7-7-7--5-5-5--0--3h5--3h5--|--7-7-7-7-7--3-3-3--5-5-5-5---|
|--5-5-5-5-5----------------------|--5-5-5-5-5---------3-3-3-3---|

                                                      Second Time Then Interlude
|---------------------------------|------------------|---------------|
|---------------------------------|------------------|---------------|
|-------------7-7-7---------------|--------------7---|--7-7-7-7-7-7--|
|--7-7-7-7-7--7-7-7---------------|--7-7-7-7-7---7---|--7-7-7-7-7-7--|
|--7-7-7-7-7--5-5-5--0--3h5--3h5--|--7-7-7-7-7---5---|--5-5-5-5-5-5--|
|--5-5-5-5-5----------------------|--5-5-5-5-5-------|---------------|


Interlude

|-----------------------------------|-------------------------|
|-----------------------------------|-------------------------|
|--5-5-5-5-5-5-5-5-5-5-5-5-5-4-4-4--|--2-2-------2-2-2-2------|
|--5-5-5-5-5-5-5-5-5-5-5-5-5-4-4-4--|--2-2-------2-2-2-2------|
|--3-3-3-3-3-3-3-3-3-3-3-3-3-2-2-2--|--0-0-3-----0-0-0-0-3----|
|-----------------------------------|--------3~------------3~-|

|------------------------------------|-------------------------|
|------------------------------------|-------------------------|
|------------------------------------|--2-2-------2-2-2-2------|
|---3-3-3-3-3-3-3-3-5-5-5-5-5-5-5-5--|--2-2-------2-2-2-2------|
|-3-3-3-3-3-3-3-3-3-5-5-5-5-5-5-5-5--|--0-0--3----0-0-0-0-3----|
|---1-1-1-1-1-1-1-1-3-3-3-3-3-3-3-3--|---------3~-----------3~-|

|----------------------------------------------------|
|----------------------------------------------------|
|----------------------------------------------------|
|---3-3-3-3-3-3-3-3-2-2-2-2-2-2-2-2-2-2-2-2-2-2-2-2--|
|-3-3-3-3-3-3-3-3-3-2-2-2-2-2-2-2-2-2-2-2-2-2-2-2-2--|
|---1-1-1-1-1-1-1-1-0-0-0-0-0-0-0-0-0-0-0-0-0-0-0-0--|


That's It The Rest is Just The Chorus Palm Muted Then Not Palm Muted!!! ENJOY!!!
Composição de Dave Brenner / Dean Back / Tyler Connolly
1.107 exibições
    • ½ Tom
    • A
    • Bb
    • B
    • C
    • Db
    • D
    • Eb
    • E
    • F
    • F#
    • G
    • Ab
  • Adicionar à lista

    0 comentários

    Mostrar mais comentários

    Conseguiu tocar?

    0 Tocaram 0 Ainda não

    Grave um vídeo tocando Better Off e mande pra gente!

    00:00 / 00:00
    outros vídeos desta música
    repetir qualidade Automático
    Outros vídeos desta música
    00:00 / 00:00
    Automático
    OK