Cifra Club

Aprenda

Heaven (little By Little)

Theory Of A Deadman

Cifra: Principal (violão e guitarra)
Tom: G
INTRO

eb|---------------------------------|---------------------------------|
Bb|-----0---------------------------|-----0---------------------------|
Gb|-------------2-------0-------0---|-------------2-------0-------0---|
Db|---0---0---0---0---0---0---4---4-|---0---0---0---0---0---0---4---4-|
Ab|---------------------------------|---------------------------------|
Eb|-3-------3-------3-------3-------|-3-------3-------3-------3-------|

eb|---------------------------------|---------------------------------|
Bb|-----0---------------------------|-----0---------------------------|
Gb|-------------2-------0-------0---|-------------2-------0-------0---|
Db|---0---0---0---0---0---0---4---4-|---0---0---0---0---0---0---4---4-|
Ab|---------------------------------|---------------------------------|
Eb|-0-------0-------0-------0-------|-0-------0-------0-------0-------|

Verso 1
   Now don't...                      We can...
eb|---------------------------------|---------------------------------|
Bb|-----0---------------------------|-----0---------------------------|
Gb|-------------2-------0-------0---|-------------2-------0-------0---|
Db|---0---0---0---0---0---0---4---4-|---0---0---0---0---0---0---4---4-|
Ab|---------------------------------|---------------------------------|
Eb|-3-------3-------3-------3-------|-3-------3-------3-------3-------|
   No need...                        Cuz I...
eb|---------------------------------|---------------------------------|
Bb|-----0---------------------------|-----0---------------------------|
Gb|-------------2-------0-------0---|-------------2-------0-------0---|
Db|---0---0---0---0---0---0---4---4-|---0---0---0---0---0---0---4---4-|
Ab|---------------------------------|---------------------------------|
Eb|-0-------0-------0-------0-------|-0-------0-------0-------0-------|
   You got...                        When I...
eb|---------------------------------|---------------------------------|
Bb|-----0---------------------------|-----0---------------------------|
Gb|-------------2-------0-------0---|-------------2-------0-------0---|
Db|---0---0---0---0---0---0---4---4-|---0---0---0---0---0---0---4---4-|
Ab|---------------------------------|---------------------------------|
Eb|-3-------3-------3-------3-------|-3-------3-------3-------3-------|
   Let me...                         The love...
eb|---------------------------------|---------------------------------|
Bb|-----0---------------------------|-----0---------------------------|
Gb|-------------2-------0-------0---|-------------2-------0-------0---|
Db|---0---0---0---0---0---0---4---4-|---0---0---0---0---0---0---4---4-|
Ab|---------------------------------|---------------------------------|
Eb|-0-------0-------0-------0-------|-0-------0-------0-------0-------|

Pre-Refrão
Cadd9           D
   Just hold on
Cadd9               D
I'm not that strong

Refrão
G                         Em7
There's a little piece of heaven
                     G
Right here where you are
                       Em7
The fact that you keep trying
                  G
Is what sets you apart
               Em7
Help me find a reason
                           Cadd9
And I'll help you find the way
              D        Cadd9
To get rid of all your pain
                  D
Little by little, day by day

 ..day
e|---------------------------------|---------------------------------|
B|-----0---------------------------|-----0---------------------------|
G|-------------2-------0-------0---|-------------2-------0-------0---|
D|---0---0---0---0---0---0---4---4-|---0---0---0---0---0---0---4---4-|
A|---------------------------------|---------------------------------|
E|-3-------3-------3-------3-------|-3-------3-------3-------3-------|

Verso 2
   Now you're...                     I'm alone...
e|---------------------------------|---------------------------------|
B|-----0---------------------------|-----0---------------------------|
G|-------------2-------0-------0---|-------------2-------0-------0---|
D|---0---0---0---0---0---0---4---4-|---0---0---0---0---0---0---4---4-|
A|---------------------------------|---------------------------------|
E|-3-------3-------3-------3-------|-3-------3-------3-------3-------|
   It's not...                       When you...
e|---------------------------------|---------------------------------|
B|-----0---------------------------|-----0---------------------------|
G|-------------2-------0-------0---|-------------2-------0-------0---|
D|---0---0---0---0---0---0---4---4-|---0---0---0---0---0---0---4---4-|
A|---------------------------------|---------------------------------|
E|-0-------0-------0-------0-------|-0-------0-------0-------0-------|

Pre-Refrão
Cadd9        D
     Hold on
Cadd9                   D
I was never that strong

Refrão
G                         Em7
There's a little piece of heaven
                     G
Right here where you are
                       Em7
The fact that you keep trying
                  G
Is what sets you apart
               Em7
Help me find a reason
                           Cadd9
And I'll help you find the way
              D        Cadd9
To get rid of all your pain
                  D      G     G7
Little by little, day by day


Em7             D
You'll get stronger
Cadd9               D
If you need me, I'm not far away
Em7          D
So just hold on
Cadd9                D
I'll help you find a way
Cadd9                  D
I'll help you find the way

SOLO:

G  Em7  Cadd9  D

Refrão
G                         Em7
There's a little piece of heaven
                     G
Right here where you are
                       Em7
The fact that you keep trying
                  G
Is what sets you apart
               Em7
Help me find a reason
                           Cadd9
And I'll help you find the way
              D        Cadd9
To get rid of all your pain
                  D      G     G7
Little by little, day by day
Em7               D      G     G7
Little by little, day by day
Em7               D      G     G7
Little by little, day by day
Em7               D      G     G7
Little by little, day by day
Em7               D      G
Little by little, day by day


..day
e|---------------------------------|---------------------------------|
B|-----0---------------------------|-----0---------------------------|
G|-------------2-------0-------0---|-------------2-------0-------0---|
D|---0---0---0---0---0---0---4---4-|---0---0---0---0---0---0---4---4-|
A|---------------------------------|---------------------------------|
E|-3-------3-------3-------3-------|-3-------3-------3-------3-------|

e|---------------------------------|---------------------------------|
B|-----0---------------------------|-----0---------------------------|
G|-------------2-------0-------0---|-------------2-------0-------0---|
D|---0---0---0---0---0---0---4---4-|---0---0---0---0---0---0---4---4-|
A|---------------------------------|---------------------------------|
E|-3-------3-------3-------3-------|-3-------3-------3-------3-------|

Termina em G, deixe soar.
Colaboração e revisão:
  • Antonio Cirino
1.756 exibições
    • ½ Tom
    • A
    • Bb
    • B
    • C
    • Db
    • D
    • Eb
    • E
    • F
    • F#
    • G
    • Ab
  • Adicionar à lista

    0 comentários

    Mostrar mais comentários

    Conseguiu tocar?

    1 Tocaram 0 Ainda não

    Grave um vídeo tocando Heaven (little By Little) e mande pra gente!

    00:00 / 00:00
    outros vídeos desta música
    repetir qualidade Automático
    Outros vídeos desta música
    00:00 / 00:00
    Automático
    OK