Cifra Club

Aprenda

Santa Monica

Theory Of A Deadman

Cifra: Principal (violão e guitarra)
Tom: G
-INTRO-

----------10--0-|----------10--3-----|
--12----10----0-|--12----10----3-----|
-----12-------0-|-----12-------0-----|
--------------2-|--------------0-----|
--------------2-|--------------2-----|
--------------0-|--------------3-----|
  *  *  * *        *  *  * *

----------10--2-|----------10--3-----|
--12----10----3-|--12----10----3-----|
-----12-------2-|-----12-------0-----|
--------------0-|--------------2-----|
--------------0-|--------------3-----|
----------------|--------------------|
  *  *  * *        *  *  * *

-VERSE-

Em                              G  D           C           Em
   She fills my bed with gasoline, you think i woulda noticed.
                                     G
   Her minds made up, her love is gone.
                  D              C         Em
   I think someone's trying to show us a sign.
                                       G
   That even if we thought it would last
          D   C       Em
   The moment would pass.
                                            G
   My Bones will break and my heart will give
          D    C    Em
   Oh it hurts to live.

  Em                G                 D                 Cadd9
-----------------|-----------------|-----------------|-----------------|
-----3-------3---|-----3-------3---|-----3-------3---|-----3-------3---|
---4---4---4---4-|---4---4---4---4-|---4---4---4---4-|---4---4---4---4-|
-----------------|-----------------|-----------------|-----------------|
-----------------|-----------------|-----------------|-----------------|
-----------------|-----------------|-----------------|-----------------|
Em                  G
   I remember the day
                                D
   When you left for Santa Monica
                  C
   You left me to remain with all your excuses for everything
   Em                G
   I remember the time
                            D
   You left for Santa Monica
                   C
   I remember the day you said it was over

-POST CHORUS-

-0----------10--|-3-|-12*-|
-0---12----10---|-3-|-12*-|
-0----12--------|-0-|-12*-|
-2--------------|-0-|-----|
-2--------------|-2-|-----|
-0--------------|-3-|-----|
(Em, G, D, C)
                    Em
    It hurts to Breath
    G                   D       C     Em
    Everytime that you're not next to me
                                      G
    Her mind's made up, the girl is gone
         D        C        Em
    And now i'm forced to see
                       G        D        C       Em
    I think i'm on my way, Oh it hurts to live today
                     G                       D          C    Em
    Oh and she says, Don't you wish you were dead like me.

- CHORUS - Em F# G A

   (Em F# G A)
    I wanted more than this
    I needed more than this
    I deserve more than this
    But it just won't stop, it just won't go away
    I wanted more than this
    I needed more than this
    I asked for more than this
    But it just won't stop, it just won't go away

     *(Band dyes off and is just accoustic guitar)*
    
Em                   G
    I remember the day 
                            D
    You left for Santa Monica
                     C
    You left me to remain with your excuses for everything

      *(Band jumps in)*
     Em                G
     I remember the time
                               D
     When you left it all behind
                     C
     I remember the day you said it was over

      (You left for santa monica)
                         Em
                         I remember the day
      (You left for santa monica)
                         G
                         You left for santa monica
      (You left for santa monica)
                          D
                          You left me to remain
                   C
                   With your excuses and everything
       Em                G
       I remember the time you left for Santa Monica
       D               C
       I remember th day you said it was over.
Composição de Dave Brenner / Dean Back / Tyler Connolly
Colaboração e revisão:
  • Paulo Augusto
  • João Sachet
15.575 exibições
    • ½ Tom
    • A
    • Bb
    • B
    • C
    • Db
    • D
    • Eb
    • E
    • F
    • F#
    • G
    • Ab
  • Adicionar à lista

    0 comentários

    Mostrar mais comentários

    Conseguiu tocar?

    10 Tocaram 0 Ainda não

    Grave um vídeo tocando Santa Monica e mande pra gente!

    00:00 / 00:00
    outros vídeos desta música
    repetir qualidade Automático
    Outros vídeos desta música
    00:00 / 00:00
    Automático
    OK