Cifra Club

Partimos a Pedra

Tiago Bettencourt

Cifra: Principal (violão e guitarra)
tom: Dm
[Intro] Dm

Dm
  Partimos a pedra
Dm
  Abrimos caminho
Dm
  Rasgamos montanhas
Dm
  Esquecemos o perigo

Dm
  Corremos na selva
Gm
  O sol, o deserto
C
  O escuro da sombra
A
  Ficando mais perto

Dm
  Quem no fundo quer
Gm       A
  Vai atrás
Dm
  Quem de longe vê
Gm
  Parte pedra
Bb       A
  Vai atrás

Bb
  E se o vento empurrar
Gm
  Nossas velas de algodão
C
  Deixe-mo-nos levar
F
  Acertando a direção
Bb
  E se o medo nos ferir
Gm
  Bem para longe da razão
C
  Aprendemos a seguir
F
  Acertando a direção
Bb    A
  Ahhh, acertando a direção

[Solo] Dm  Dm/C#  Bb7M  Dm/A

Gm
  Um grito sem guerra
Bdim7
  Um mapa sem rota
F
  A mão que nos leva
A
  E nunca nos solta
Dm
  Partimos a pedra
Gm
  Abrimos caminho
Bb
  Rasgamos montanhas
A                      
  Mas nunca sozinhos

Bb
  E se o vento empurrar
Gm
  Nossas velas de algodão
C
  Deixe-mo-nos levar
F
  Acertando a direção
Bb
  E se o medo nos ferir
Gm
  Bem para longe da razão
C
  Aprendemos a seguir
F
  Acertando a direção
Bb    A                    Dm
  Ahhh, acertando a direção
Dm
Uhhh uhhhh uhhhh

[Riff]

E|--------1-----------1-------------1-----------5-----|
B|--------3-----------3-------------3-----------6-----|
G|-----2-----2-----2-----2-------2-----2-----7-----7--|
D|--0-----------0-------------0-----------0-----------|
A|----------------------------------------------------|
E|----------------------------------------------------|

E|--------10---------10----------10------------10-----|
B|--------11---------11----------10------------10-----|
G|----10-----10---10-----10---10----10-----10------10-|
D|-0------------0-----------0-----------0-------------|
A|----------------------------------------------------|
E|----------------------------------------------------|

Bb
  E se o vento empurrar
Gm
  Nossas velas de algodão
C
  Deixêmo-nos levar
F
  Acertando a direção
Bb
  E se o medo nos ferir
Gm
  Bem para longe da razão
C
  Aprendemos a seguir
F
  Acertando a direção
Bb     A                    Dm
  Ahhh, acertando a direção
00:00 / 00:00
Outros vídeos desta música
Repetir
Outros vídeos desta música
Composição de Tiago Bettencourt
Colaboração e revisão:
  • Victor Cavallini
821 exibições
    • ½ Tom
    • Am
    • Bbm
    • Bm
    • Cm
    • C#m
    • Dm
    • Ebm
    • Em
    • Fm
    • F#m
    • Gm
    • G#m
  • Adicionar à lista

    0 comentários

    Ver todos os comentários

    Conseguiu tocar?

    0 Tocaram 0 Ainda não

    Grave um vídeo tocando Partimos a Pedra e nos envie!

    Entre para oCifra Club PRO

    Tenha acesso a benefícios exclusivos no App e no Site

    • Chega de anúncios

    • Prioridade de compra em lançamentos

    • Mais recursos no app do Afinador

    • Atendimento Prioritário

    • Descontos nos produtos Cifra Club

    • Ajude a produzir mais conteúdo

    00:00 / 00:00

    Cifra Club Pro

    Aproveite o Cifra Club com benefícios exclusivos e sem anúncios
    Cifra Club Pro
    Aproveite o Cifra Club com benefícios exclusivos e sem anúncios
    OK