Cifra Club

Coisa Linda

Tiago Iorc

Cifra: Principal
exibições 664.206
Tom: C# (com acordes na forma de C) Capotraste na 1ª casa
Intro 2x: C

     C
E|------------------------------------------|
B|---1-----1-1------1-----1-1---------------|
G|---0-------0------0-------0---------------|
D|---0h2-----2-2----0h2-----2-2-------------|
A|-3-----3--------3-----3-------------------|
E|------------------------------------------|
     ↓       ↓      ↓       ↓

Primeira Parte:

C  F9                C
  Linda do jeito que é
              G4
Da cabeça ao pé
                 C
Do jeitinho que for

F9             C
É, e só de pensar
                  G4
Sei que já vou estar
              Am7  C/G  F#m7(5-)
Morrendo de amor
     F9  G4  C
De amor
Primeira Parte: 

Parte 1 de 7
     F9
E|------------------------------------------|
B|---1-----1-1------1-----1-1---------------|
G|---0-------0------0-------0---------------|
D|---3-3-----3-3----3-3-----3-3-------------|
A|------------------------------------------|
E|-1-----1--------1-----1-------------------|
     ↓       ↓      ↓       ↓
Parte 2 de 7
     C
E|------------------------------------------|
B|---1-----1-1------1-----1-1---------------|
G|---0-------0------0-------0---------------|
D|---2-2-----2-2----2-2-----2-2-------------|
A|-3-----3--------3-----3-------------------|
E|------------------------------------------|
     ↓       ↓      ↓       ↓
Parte 3 de 7
     G4
E|------------------------------------------|
B|---1-----1-1------1-----1-1---------------|
G|---0-------0------0-------0---------------|
D|---0-0-----0-0----0-0-----0-0-------------|
A|------------------------------------------|
E|-3-----3--------3-----3-------------------|
     ↓       ↓      ↓       ↓
Parte 4 de 7
     C
E|------------------------------------------|
B|---1-----1-1------1-----1-1---------------|
G|---0-------0------0-------0---------------|
D|---0h2-----2-2----0h2-----2-2-------------|
A|-3-----3--------3-----3-------------------|
E|------------------------------------------|
     ↓       ↓      ↓       ↓
Parte 1 de 7
     F9
E|------------------------------------------|
B|---1-----1-1------1-----1-1---------------|
G|---0-------0------0-------0---------------|
D|---3-3-----3-3----3-3-----3-3-------------|
A|------------------------------------------|
E|-1-----1--------1-----1-------------------|
     ↓       ↓      ↓       ↓
Parte 2 de 7
     C
E|------------------------------------------|
B|---1-----1-1------1-----1-1---------------|
G|---0-------0------0-------0---------------|
D|---2-2-----2-2----2-2-----2-2-------------|
A|-3-----3--------3-----3-------------------|
E|------------------------------------------|
     ↓       ↓      ↓       ↓
Parte 3 de 7
     G4
E|------------------------------------------|
B|---1-----1-1------1-----1-1---------------|
G|---0-------0------0-------0---------------|
D|---0-0-----0-0----0-0-----0-0-------------|
A|------------------------------------------|
E|-3-----3--------3-----3-------------------|
     ↓       ↓      ↓       ↓
Parte 5 de 7
     Am7           C/G
E|------------------------------------------|
B|---1-----1-1------1-----1-1---------------|
G|---0-------0------0-------0---------------|
D|---2-2-----2-2----2-2-----2-2-------------|
A|-0-----0----------------------------------|
E|----------------3-----3-------------------|
     ↓       ↓      ↓       ↓
Parte 6 de 7
     F#m7(5-)
E|------------------------------------------|
B|---1-----1-1------1-----1-1---------------|
G|---2-------2------2-------2---------------|
D|---2-2-----2-2----2-2-----2-2-------------|
A|------------------------------------------|
E|-2-----2--------2-----2-------------------|
     ↓       ↓      ↓       ↓
Parte 7 de 7
     F9    G4
E|------------------------------------------|
B|---1-----1--------------------------------|
G|---0-----0--------------------------------|
D|---3-3---0-0------------------------------|
A|------------------------------------------|
E|-1-----3----------------------------------|
     ↓     ↓
Parte 4 de 7 (2x)
     C
E|------------------------------------------|
B|---1-----1-1------1-----1-1---------------|
G|---0-------0------0-------0---------------|
D|---0h2-----2-2----0h2-----2-2-------------|
A|-3-----3--------3-----3-------------------|
E|------------------------------------------|
     ↓       ↓      ↓       ↓
Refrão:

 C  G11/B      Am7  C/G
Co________isa linda
 F#m7(5-)
Vou pr'onde você está
 F9          G4     C
Não precisa nem chamar
 G11/B  Am7  C/G
Coisa  linda
 F#m7(5-)      F9   G4  C
Vou pr'onde você está
Refrão

Parte 1 de 6
     C             G11/B
E|------------------------------------------|
B|---1-----1-1------1-----1-1---------------|
G|---0-------0------0-------0---------------|
D|---2-2-----2-2----0-0-----0-0-------------|
A|-3-----3--------2-----2-------------------|
E|------------------------------------------|
     ↓       ↓      ↓       ↓
Parte 2 de 6
     Am7           C/G
E|------------------------------------------|
B|---1-----1-1------1-----1-1---------------|
G|---0-------0------0-------0---------------|
D|---2-2-----2-2----2-2-----2-2-------------|
A|-0-----0----------------------------------|
E|----------------3-----3-------------------|
     ↓       ↓      ↓       ↓
Parte 3 de 6
     F#m7(5-)
E|------------------------------------------|
B|---1-----1-1------1-----1-1---------------|
G|---2-------2------2-------2---------------|
D|---2-2-----2-2----2-2-----2-2-------------|
A|------------------------------------------|
E|-2-----2--------2-----2-------------------|
     ↓       ↓      ↓       ↓
Parte 4 de 6
     F9             G4
E|------------------------------------------|
B|---1-----1-1------1-----1-1---------------|
G|---0-------0------0-------0---------------|
D|---3-3-----3-3----0-0-----0-0-------------|
A|------------------------------------------|
E|-1-----1--------3-----3-------------------|
     ↓       ↓      ↓       ↓
Parte 1 de 6
     C             G11/B
E|------------------------------------------|
B|---1-----1-1------1-----1-1---------------|
G|---0-------0------0-------0---------------|
D|---2-2-----2-2----0-0-----0-0-------------|
A|-3-----3--------2-----2-------------------|
E|------------------------------------------|
     ↓       ↓      ↓       ↓
Parte 2 de 6
     Am7           C/G
E|------------------------------------------|
B|---1-----1-1------1-----1-1---------------|
G|---0-------0------0-------0---------------|
D|---2-2-----2-2----2-2-----2-2-------------|
A|-0-----0----------------------------------|
E|----------------3-----3-------------------|
     ↓       ↓      ↓       ↓
Parte 5 de 6
     F#m7(5-)      F9     G4
E|------------------------------------------|
B|---1-----1-1------1-----1-----------------|
G|---2-------2------0-----0-----------------|
D|---2-2-----2-2----3-3---0-0---------------|
A|------------------------------------------|
E|-2-----2--------1-----3-------------------|
     ↓       ↓      ↓     ↓
Parte 6 de 6
     C
E|------------------------------------------|
B|---1---------1---------1---------1--------|
G|---0---------0---------0---------0--------|
D|---0h2--0h2--0h2--0h2--0h2--0h2--0h2------|
A|-3------3---------3---------3-------------|
E|------------------------------------------|
     ↓         ↓         ↓         ↓
Segunda Parte:

 F9             C
Linda feito manhã
                   G4
Feito chá de hortelã
                 Am7  C/G
Feito ir para o mar

 F9              C
Linda assim, deitada
                G4
Com a cara amassada
                 Am7  C/G  F#m7(5-)
Enrolando o acordar
       F9  G4  C
O acordar

Refrão:

 C  G11/B      Am7  C/G
Co________isa linda
 F#m7(5-)
Vou pr'onde você está
 F9          G4     C
Não precisa nem chamar
 G11/B  Am7  C/G
Coisa  linda
 F#m7(5-)      F9   G4  C
Vou pr'onde você está

Terceira Parte:

F9                         G4  C/E
Ah, se a beleza mora no olhar

No meu você chegou 
        Am7  C/G  F#m7(5-)
E resolveu  fi___car
       F9  G4  C
Pra fazer teu lar
       F9  G4
Pra fazer teu lar
Terceira Parte:

Parte 1 de 6
     F9
E|------------------------------------------|
B|---1---------1---------1---------1--------|
G|-----0---------0---------0---------0------|
D|---------3---------3---------3---------3--|
A|------------------------------------------|
E|-1-----1---1-----1---1-----1---1-----1----|
Parte 2 de 6
     G4        C/E
E|------------------------------------------|
B|---1---------1---------1---------1--------|
G|-----0---------0---------0---------0------|
D|---------0---------2---------2---------2--|
A|------------------------------------------|
E|-3-----3---0-----0---0-----0---0-----0----|
Parte 3 de 6
    Am7  C/G
E|------------------------------------------|
B|---1----1---------------------------------|
G|------------------------------------------|
D|------------------------------------------|
A|-0----------------------------------------|
E|------3-----------------------------------|
Parte 4 de 6
    F#m7(5-)
E|------------------------------------------|
B|---1---------1---------1---------1--------|
G|-----2---------2---------2---------2------|
D|---------2---------2---------2---------2--|
A|------------------------------------------|
E|-2-----2---2-----2---2-----2---2-----2----|
 Parte 5 de 6
     F9   G4
E|------------------------------------------|
B|---1----1---------------------------------|
G|------------------------------------------|
D|------------------------------------------|
A|------------------------------------------|
E|-1----3-----------------------------------|
Parte 6 de 6
     C
E|------------------------------------------|
B|---1----------1---------------------------|
G|-----0----------0-------------------------|
D|---------2----------2---------------------|
A|-3-----3----3-----3-----------------------|
E|------------------------------------------|
Parte 5 de 6
     F9   G4
E|------------------------------------------|
B|---1----1---------------------------------|
G|------------------------------------------|
D|------------------------------------------|
A|------------------------------------------|
E|-1----3-----------------------------------|

Refrão Final: C  G11/B  Am7  C/G

 F#m7(5-)
Pá, pá, pá, pá, pá, rá, pá
 F9              G4            C
Pá, pá, pá, rá, pa, rá, pá, pá
 G11/B  Am7  C/G
Coisa  linda
 F#m7(5-)
Vou pr'onde você está
 F9           G4
Vou pr'onde você está

( C  G11/B  Am7  C/G  F#m7(5-)  F9  G4 )
( C  G11/B  Am7  C/G  F#m7(5-)  F9  G4  C )
Acordes para:

    0 comentários

      mostrar mais comentários

      Conseguiu tocar?

      28tocaram19ainda não

      Grave um vídeo tocando Coisa Linda e mande pra gente!

      00:00 / 00:00
      outros vídeos desta música
      repetirqualidadeautomática
      Outro vídeos desta música
        00:00 / 00:00
        automática
        Capítulos
        • Tocando a música
        • Dicas Iniciais / Equipamentos
        • Acordes da Introdução
        • Tocando a Introdução
        • Introdução
        • Acordes da Primeira Parte
        • Tocando a Primeira Parte
        • Primeira Parte - Parte 1 de 7
        • Primeira Parte - Parte 2 de 7
        • Primeira Parte - Parte 3 de 7
        • Primeira Parte - Parte 4 de 7
        • Primeira Parte - Parte 5 de 7
        • Primeira Parte - Parte 6 de 7
        • Primeira Parte - Parte 7 de 7
        • Acordes do Refrão
        • Tocando o Refrão
        • Refrão - Parte 1 de 6
        • Refrão - Parte 2 de 6
        • Refrão - Parte 3 de 6
        • Refrão - Parte 4 de 6
        • Refrão - Parte 1 de 6 (repetição)
        • Refrão - Parte 5 de 6
        • Refrão - Parte 6 de 6
        • Tocando a Segunda Parte
        • Ritmo da Segunda Parte
        • Refrão - Parte 2 de 6 (repetição)
        • Acordes da Terceira Parte
        • Tocando Refrão e Terceira Parte
        • Terceira Parte - Parte 1 de 6
        • Terceira Parte - Parte 2 de 6
        • Terceira Parte - Parte 3 de 6
        • Terceira Parte - Parte 4 de 6
        • Terceira Parte - Parte 5 de 6
        • Terceira Parte - Parte 6 de 6
        • Tocando o Refrão Final
        • Encerramento
        • Ficha Técnica
        OK