Cifra Club

De Todas As Coisas

Tiago Iorc

Cifra: Principal (violão e guitarra)
tom: F
[Parte 1/2]

      Gm7          C
E|---------------------------------|
B|-------3-x-3-3-x-3---3-x-5-6-x-3-|
G|-------3-x-3-3-x-3---3-x-3-3-x-3-|
D|---------------------------------|
A|-------------------3---x-----x---|
E|-6-5-3---x-----x-----------------|

  Gm7          C
E|-----------------------------|
B|---3-x-3-3-x-3---3-x-5-6-x-3-|
G|---3-x-3-3-x-3---3-x-3-3-x-3-|
D|-----------------------------|
A|---------------3---x-----x---|
E|-3---x-----x-----------------|

  Gm7          C
E|---------------------------|
B|---3-x-3-3-x-3---3-x-5-6-x-|
G|---3-x-3-3-x-3---3-x-3-3-x-|
D|---------------------------|
A|---------------3---x-----x-|
E|-3---x-----x---------------|

  Am7             Dm7
E|-----------------------------------|
B|-5---5-x-5-5-x-5---10-x-10-10-x-10-|
G|-5---5-x-5-5-x-5---10-x-10-10-x-10-|
D|-----------------------------------|
A|-----------------------------------|
E|---5---x-----x--10-----------------|

Gm7          C
   Não quero nada
Gm7          C
   Menos que nada
Gm7        C                 Am7
   Nada de nada me falta em você,
Dm7
Eh-eh-eh

Gm7          C
   Não quero pressa
Gm7       C
   Menos ainda promessas
Gm7           C                Am7
   Nada que apressa promete valer,
Dm7      Gm7     C
Eh-eh-eh    huhuhuu

[Refrão]

   F             A            Dm
E|-------------------------------------------|
B|---1-x-1-1-x-1---5-x-5-5-x-5---6-x-6-6-x-6-|
G|---2-x-2-2-x-2---6-x-6-6-x-6---7-x-7-7-x-7-|
D|-------------------------------------------|
A|-----------------------------5-------------|
E|-1---x-----x---5---x-----x-------x-----x---|

  Bb            Gm7            C
E|-------------------------------------------|
B|---3-x-3-3-x-3---3-x-3-3-x-3---3-x-5-6-x-3-|
G|---3-x-3-3-x-3---3-x-3-3-x-3---3-x-3-3-x-3-|
D|-------------------------------------------|
A|-1---x-----x-----------------3---x---------|
E|---------------3---x-----x-----------------|

   F             A            Dm
E|-------------------------------------------|
B|---1-x-1-1-x-1---5-x-5-5-x-5---6-x-6-6-x-6-|
G|---2-x-2-2-x-2---6-x-6-6-x-6---7-x-7-7-x-7-|
D|-------------------------------------------|
A|-----------------------------5-------------|
E|-1---x-----x---5---x-----x-------x-----x---|

  Bb            Gm7            C
E|-----------------------------3-|
B|---3-x-3-3-x-3---3-x-3-3-x-3-5-|
G|---3-x-3-3-x-3---3-x-3-3-x-3-5-|
D|-----------------------------5-|
A|-1---x-----x-----------------3-|
E|---------------3---x-----x-----|

F            A                 Dm
 De todas as coisas, só quero você
             G4
Só quero você
G            Bb   C
Só quero você, hm-hm
F            A                 Dm
 De todas as coisas, só quero você
             G4
Só quero você
G             Bb C
Quem sabe você    me queira também

Gm7        C
 Pa-ra-pa-pa-ra
Gm7        C
 Pa-ra-pa-pa-ra

[Parte 2/2]

Gm7          C
   Não quero nada
Gm7          C
   Menos que nada
Gm7        C                 Am7
   Nada de nada me falta em você
Dm7
Eh-eh-eh

Gm7          C
   Não quero pressa
Gm7       C
   Menos ainda promessas
Gm7           C                Am7
   Nada que apressa promete valer
Dm7      Gm7     C
Eh-eh-eh    huhuhuu

[Refrão]

F            A                 Dm
 De todas as coisas, só quero você
             G4
Só quero você
G            Bb   C
Só quero você, hm-hm
F            A                 Dm
 De todas as coisas, só quero você
             G4
Só quero você
G             Bb C
Quem sabe você    me queira também
C#
   Pa-ra-re-ru-ra-ru-ra-re-ra
C#    D#     F
Pa-ra-ra-ra-ra
00:00 / 00:00
Outros vídeos desta música
Repetir
Outros vídeos desta música
Composição de Tiago Iorc
47.913 exibições
    • ½ Tom
    • A
    • Bb
    • B
    • C
    • Db
    • D
    • Eb
    • E
    • F
    • F#
    • G
    • Ab
  • Adicionar à lista

    0 comentários

    Ver todos os comentários

    Conseguiu tocar?

    15 Tocaram 1 Ainda não

    Grave um vídeo tocando De Todas As Coisas e nos envie!

    Entre para oCifra Club PRO

    Tenha acesso a benefícios exclusivos no App e no Site

    • Chega de anúncios

    • Prioridade de compra em lançamentos

    • Mais recursos no app do Afinador

    • Atendimento Prioritário

    • Descontos nos produtos Cifra Club

    • Ajude a produzir mais conteúdo

    00:00 / 00:00

    Cifra Club Pro

    Aproveite o Cifra Club com benefícios exclusivos e sem anúncios
    Cifra Club Pro
    Aproveite o Cifra Club com benefícios exclusivos e sem anúncios
    OK