Cifra Club

Aprenda

Dia Especial

Tiago Iorc

Cifra: Principal (violão e guitarra)
Quer fazer aulas de música com a gente? Responda essas perguntas
e nos ajude nesse projeto! →
tom: Eb (forma dos acordes no tom de C) Capotraste na 3ª casa
[Intro]

[Tab - Intro]

Parte 1 De 2
E|----------------------------------------|
B|---------------------------------------1|
G|---0-----0---0---0-----0---0---0---0----|
D|---2h3---2---0---2h3---2---0---0h2-2----|
A|-3-----3---3---3------------------------|
E|---------------------1---1---3-------3--|

Parte 2 de 2
E|----------------------------------------|
B|----------------------------------------|
G|---0-----0---0---0-----0---0---------0--|
D|---2h3---2---0---2h3---2---0------------|
A|-3-----3---3---3---------------0h2-3----|
E|---------------------1---1---3----------|

[Primeira Parte]

C                   F7M
  Se alguém já lhe deu a mão

E não pediu mais nada em troca
Am                       F7M
   Pense bem, pois é um dia especial
C          F7M
  Eu sei, não é sempre 

Que a gente encontra
       Am
Alguém    que faça bem
         F7M
Que nos leve deste temporal

[Segunda Parte]

C             F7M
  O amor é maior que tudo
                     Am
Do que todos, até a dor se vai
            F7M
Quando o olhar é natural

C                   F7M
  Sonhei que as pessoas eram boas
                 Am
Em um mundo de amor
                 F7M
E acordei nesse mundo marginal

[Refrão]

F7M                     
    Mas te vejo e sinto 
    C
O brilho desse olhar
F7M                         
    Que me acalma e me traz 
 Em            Am
Força pra encarar tudo
F7M                     
    Mas te vejo e sinto 
    C             Am
O brilho desse olhar
F7M                         
    Que me acalma e me traz 
 Em            Am      F7M
Força pra encarar tudo

[Segunda Parte]

C             F7M
  O amor é maior que tudo
                     Am
Do que todos, até a dor se vai
            F7M
Quando o olhar é natural

C                   F7M
  Sonhei que as pessoas eram boas
                 Am
Em um mundo de amor
                 F7M
E acordei nesse mundo marginal

[Refrão]

F7M                     
    Mas te vejo e sinto 
    C
O brilho desse olhar
F7M                         
    Que me acalma e me traz 
 Em            Am
Força pra encarar tudo
F7M                     
    Mas te vejo e sinto 
    C             Am
O brilho desse olhar
F7M                         
    Que me acalma e me traz 
 Em            Am      F7M
Força pra encarar tudo

[Tab - Intro]

Parte 1 De 2
E|----------------------------------------|
B|---------------------------------------1|
G|---0-----0---0---0-----0---0---0---0----|
D|---2h3---2---0---2h3---2---0---0h2-2----|
A|-3-----3---3---3------------------------|
E|---------------------1---1---3-------3--|

Parte 2 de 2
E|----------------------------------------|
B|----------------------------------------|
G|---0-----0---0---0-----0---0---------0--|
D|---2h3---2---0---2h3---2---0------------|
A|-3-----3---3---3---------------0h2-3----|
E|---------------------1---1---3----------|

[Refrão]

F7M                     
    Mas te vejo e sinto 
    C
O brilho desse olhar
F7M                         
    Que me acalma e me traz 
 Em            Am  Am/G
Força pra encarar tudo
F7M                     
    Mas te vejo e sinto 
    C             Am  Am/G
O brilho desse olhar
F7M                         
    Que me acalma e me traz 
 Em            Am      Am/G
Força pra encarar tudo

F7M  C/G  C  Am
Uuh

F7M                  C/G    
    Que me acalma e me traz 
    Em         Am  Am/G
Força pra encarar tudo
F7M         C/G          C   Am
    Mas te vejo, mas te vejo     Uuh
F7M        C/G            
    E me acalma e me traz 
 Em            Am    
Força pra encarar tudo

[Final] F7M  C
Composição de Duca Leindecker
467.946 exibições
    • ½ Tom
    • A
    • Bb
    • B
    • C
    • Db
    • D
    • Eb
    • E
    • F
    • F#
    • G
    • Ab
  • Adicionar à lista

    0 comentários

    Ver todos os comentários

    Conseguiu tocar?

    73 Tocaram 18 Ainda não

    Grave um vídeo tocando Dia Especial e nos envie!

    00:00 / 00:00
    Outros vídeos desta música
    Repetir Qualidade Automático
    Outros vídeos desta música
    00:00 / 00:00
    Automático

    Cifra Club Pro

    Aproveite o Cifra Club com benefícios exclusivos e sem anúncios
    Cifra Club Pro
    Aproveite o Cifra Club com benefícios exclusivos e sem anúncios
    OK