Cifra Club

Liberdade Ou Solidão

Tiago Iorc

Cifra: Principal (violão e guitarra)
tom: F
[Intro]  F/C  C7M

     F/C
E|0-----0-----------0-----0-----0---------0------|
B|----------3----------------------3-------------|
G|----2-----------2-----2-----2----------2----2--|
D|3-3-----3---3-3-----3---3-3-----3--3-3----3----|
A|-----------------------------------------------|
E|-----------------------------------------------|
     C
E|0-----0-----------0-----0-----0---------0------|
B|----------3----------------------3-------------|
G|----2-----------2-----2-----2----------2----2--|
D|-----------------------------------------------|
A|3-3-----3---3-3-----3---3-3-----3--3-3----3----|
E|-----------------------------------------------|
     F/C
E|0-----0-----------0-----0-----0---------0------|
B|----------3----------------------3-------------|
G|----2-----------2-----2-----2----------2----2--|
D|3-3-----3---3-3-----3---3-3-----3--3-3----3----|
A|-----------------------------------------------|
E|-----------------------------------------------|
     C                   Am7
E|0-----0-----------0-----0-----0---------0------|
B|----------3----------------------3-------------|
G|----2-----------2-----2-----2----------2----2--|
D|-----------------------------------------------|
A|3-3-----3---3-3-----3---0-0-----0--0-0----0----|
E|-----------------------------------------------|


F/C                               C
Livre, era o que ela mais queria ser
F/C                               C
Livre, pra ir e vir e ser o que quiser
          Am7
Quando quiser e se quiser

   F/C
Mas só o tempo só pra descobrir
                         C
Se a liberdade é só solidão
   F/C
E só o tempo só pra descobrir
O que é ser

F/C
Livre, se já não faz sentido
          C
Ou nunca fez
F/C                                C
Livre, pra encontrar motivo outra vez
         Am7
Mais uma vez ou de uma vez

F/C
Mas só o tempo só pra descobrir
                         C
Se a liberdade é só solidão
F/C
E só o tempo só pra descobrir
O que é pra ser

F/C
Livre, pra rir do que é ruim
          C
Então chorar de feliz
F/C                                 C
Livre, não por acaso, acaso não condiz
          Am7
Quando condiz com o que se quis

F/C
Mas só o tempo só pra descobrir
                         C
Se a liberdade é só solidão
F/C
E só o tempo só pra descobrir
O que vai ser

(F/C Am7 C)

F/C
E só o tempo só pra descobrir
                         C
Se a liberdade é só solidão
F/C
E só o tempo só pra descobrir
             C
O que é viver
00:00 / 00:00
Outros vídeos desta música
Repetir
Outros vídeos desta música
Composição de Tiago Iorc
Colaboração e revisão:
30.243 exibições
    • ½ Tom
    • A
    • Bb
    • B
    • C
    • Db
    • D
    • Eb
    • E
    • F
    • F#
    • G
    • Ab
  • Adicionar à lista

    0 comentários

    Ver todos os comentários

    Conseguiu tocar?

    16 Tocaram 4 Ainda não

    Grave um vídeo tocando Liberdade Ou Solidão e nos envie!

    Entre para oCifra Club PRO

    Tenha acesso a benefícios exclusivos no App e no Site

    • Chega de anúncios

    • Prioridade de compra em lançamentos

    • Mais recursos no app do Afinador

    • Atendimento Prioritário

    • Descontos nos produtos Cifra Club

    • Ajude a produzir mais conteúdo

    00:00 / 00:00

    Cifra Club Pro

    Aproveite o Cifra Club com benefícios exclusivos e sem anúncios
    Cifra Club Pro
    Aproveite o Cifra Club com benefícios exclusivos e sem anúncios
    OK