Cifra Club

Aprenda

Um Dia Após o Outro

Tiago Iorc

Cifra: Principal (violão e guitarra)
Tom: Eb (forma dos acordes no tom de C) Capotraste na 3ª casa
Primeira Parte:

         C
Pra começar
      Dm11
Cada coisa em seu lugar
   Em                     Dm11
E nada como um dia após o outro
              C
Pra quê apressar
        Dm11
Se não sabe onde chegar
    Em                        Dm11
Correr em vão se o caminho é longo

Primeira Parte:

Parte 1

   C
E|------------------------------------------|
B|------------------------------------------|
G|-----0----------0-------------------------|
D|-------2----------2-----------------------|
A|-3-3-----3--3-3-----3---------------------|
E|------------------------------------------|

Parte 2

   Dm11
E|------------------------------------------|
B|------------------------------------------|
G|-----0----------0-------------------------|
D|-------3----------3-----------------------|
A|-5-5-----5--5-5-----5---------------------|
E|------------------------------------------|

Parte 3

   Em
E|------------------------------------------|
B|------------------------------------------|
G|-----0----------0-------------------------|
D|-------5----------5-----------------------|
A|-7-7-----7--7-7-----7---------------------|
E|------------------------------------------|

Segunda Parte:

            F5(9)
Quem se soltar
    G7(9)
Da vida vai gostar
     C/E                         F5(9)  G7(9)
E a vida vai gostar de volta em dobro
           Am7(9)
E se tropeçar
     C/E
Do chão não vai passar
      F5(9)                      G7(9)
Quem sete vezes cai levanta oito

Segunda Parte:

Parte 1

   F5(9)
E|------------------------------------------|
B|------------------------------------------|
G|-----0-----0------0-----0-----------------|
D|-------3------------3---------------------|
A|---3-----3------3-----3-------------------|
E|-1------------1---------------------------|

Parte 2

   G7(9)
E|------------------------------------------|
B|------------------------------------------|
G|-----0-----0------0-----0-----------------|
D|-------3------------3---------------------|
A|---0-----0------0-----0-------------------|
E|-3------------3---------------------------|

Parte 3

   C/E
E|------------------------------------------|
B|------------------------------------------|
G|-----0-----0------0-----0-----------------|
D|-------2------------2---------------------|
A|---3-----3------3-----3-------------------|
E|-0------------0---------------------------|

Parte 4

   F5(9)             G7(9)
E|------------------------------------------|
B|------------------------------------------|
G|-----0-----0------0-----------------------|
D|-------3--------------3-------------------|
A|---3-----3------3-------0-----------------|
E|-1------------1-----3---------------------|

Parte 5

   Am7(9)
E|------------------------------------------|
B|------------------------------------------|
G|-----0-----0------0-----0-----------------|
D|-------2------------2---------------------|
A|---3-----3------3-----3-------------------|
E|-5------------5---------------------------|

Parte 6

   C/E
E|------------------------------------------|
B|------------------------------------------|
G|-----0-----0------0-----0-----------------|
D|-------2------------2---------------------|
A|---3-----3------3-----3-------------------|
E|-0------------0---------------------------|

Parte 7

   F5(9)
E|------------------------------------------|
B|------------------------------------------|
G|-----0-----0------0-----0-----------------|
D|-------3------------3---------------------|
A|---3-----3------3-----3-------------------|
E|-1------------1---------------------------|

Parte 8

   F5(9)        G7(9)
E|------------------------------------------|
B|------------------------------------------|
G|-----0-----0------------------------------|
D|-------3----------3-3---------------------|
A|---3-----3------0-----0-------------------|
E|-1------------3---------------------------|

Terceira Parte:

C/G  F5(9)  G7(4)  C/G  F5(9)  G7(4)

              C/G
Quem julga saber
     Dm11/A
E esquece de aprender
    Em/B                      Dm11/A
Coitado de quem se interessa pouco

             C/G
E quando chorar
     Dm11/A
Tristeza pra lavar
    Em/B                   Dm11/A
Num ombro cai metade do sufoco

Quarta Parte:

          F5(9)
O novo virá
     G7(4)
Pra re-harmonizar
   C7M/E                   F5(9)  G7(4)
A terra, o ar, a água e o fogo

              Am7(9)
E sem se queixar
    C7M/E
As peças vão voltar
     F5(9)                       G7(4)
Pra mesma caixa no final do jogo

Base Solo:

C/G  F5(9)  G7(4)  C/G  F5(9)  G7(4)

Am7(9)  C7M/E  F5(9)  G7(4)

Solo:

Parte 1

E|----------------------------------------------------|
B|----------------------------------------------------|
G|-3/8-8-10-12-5-3------------------------------------|
D|----------------------------------------------------|
A|-1/6-6--8-10-3-1------------------------------------|
E|----------------------------------------------------|

Parte 2

E|----------------------------------------------------|
B|----------------------------------------------------|
G|-3/8-8-10-12--15-15-15-15-15-15-15-15---------------|
D|----------------------------------------------------|
A|-1/6-6--8-10--13-13-13-13---------------------------|
E|----------------------------------------------------|

Parte 3

E|----------------------------------------------------|
B|-----------8h9p8------------------------------------|
G|-15p13-13~-------10p8-10/12-------------------------|
D|----------------------------10-10\8-10--------------|
A|----------------------------------------------------|
E|----------------------------------------------------|

Parte 4

E|--------------------11-13-11-13/15-13-13\11-11------|
B|--------------11-13---------------------------------|
G|------8-10/12---------------------------------------|
D|-8h10-----------------------------------------------|
A|----------------------------------------------------|
E|----------------------------------------------------|

Quinta Parte:

          F5(9)
Pode esperar
   G7(4)
O tempo nos dirá
     C7M/E                  F5(9)  G7(4)
Que nada como um dia após o outro

           F5(9)
O tempo dirá
   G7(4)
O tempo é que dirá
   C7M/E                  F5(9)  G7(4)
E nada como um dia após o outro

Sexta parte:

          Am7(9)
Pode esperar
   C7M/E
O tempo nos dirá
     F5(9)                        G7(4)
Que nada como um dia após o outro

           Am7(9)
O tempo dirá
   C7M/E
O tempo é que dirá
   F5(9)
E nada como um dia após
                G7(4)     C/G   F5(9)  G7(4)
E nada como um dia após o outro
   C/G               F5(9)   G7(4)
E nada como um dia após    o outro
C/G          F5(9)  G7(4)
    Um dia após

C/G   F5(9)  G7(4)
Composição de Tiago Iorc
Colaboração e revisão:
  • Leandro Sandim
  • Filipe Oliveira
147.350 exibições
  • Simplificar cifra
    • ½ Tom
    • A
    • Bb
    • B
    • C
    • Db
    • D
    • Eb
    • E
    • F
    • F#
    • G
    • Ab
  • Adicionar à lista

    0 comentários

    Mostrar mais comentários

    Conseguiu tocar?

    16 Tocaram 2 Ainda não

    Grave um vídeo tocando Um Dia Após o Outro e mande pra gente!

    00:00 / 00:00
    outros vídeos desta música
    repetir qualidade Automático
    Outros vídeos desta música
    00:00 / 00:00
    Automático
    Capítulos
    • Início
    • Acordes da Primeira Parte
    • Tocando Primeira Parte
    • Ensinando Dedilhado Primeira Parte
    • Acordes Segunda Parte
    • Tocando Segunda Parte
    • Ensinando Dedilhado Segunda Parte
    • Acordes Terceira Parte
    • Tocando Terceira Parte
    • Ensinando o Ritmo
    • Acordes Quarta Parte
    • Tocando Quarta Parte
    • Ensinando Variação Rítmica
    • Tocando Solo
    • Ensinando Solo
    • Tocando Quinta Parte
    • Ensinando Ritmo Quinta Parte
    • Tocando Final
    • Ensinando Ritmo Final
    • Encerramento
    • Tocando a Música
    OK