Cifra Club

What Weighs Me Down

Tiago Iorc

Cifra: Principal (violão e guitarra)
tom: E (forma dos acordes no tom de D) Capotraste na 2ª casa
[Intro] G/B  Bbm6  A7  G9  D/F#  Em7

   G/B            Bbm6              A7                          G9     D/F#  Em7
E|------------------------------------------------------------------------------------------------|
B|-3-----3--------2-------2--------2------2--0-----3-----------0----------3--3--3--------3--------|
G|----0-----0---------0------0---------0--------2-----2--0--------2~4--2-----0-----0--------0-----|
D|---------------------------------------------------------------------------2--------2--------2--|
A|-2--------------1----------------0--------------------------------------------------------------|
E|-------------------------------------------------------------3-------2-----0--------------------|

[Primeira Parte]

   G7M/B          G7M/Bb         G7M(9)/A        F#9/G#             G9     D/F#  Em7
E|----------------------------------------------------------------------------------------------------|
B|-----------------------------------------------------------------0----------3--3--3--------3--------|
G|-------0--------------0--------------0--------------0---------------2~4--2-----0-----0--------0-----|
D|----4-----4--------4-----4--------4-----4--------4-----4-----------------------2--------2--------2--|
A|-2--------------1--------------0--------------------------------------------------------------------|
E|----------------------------------------------4--------------0-2-3-------2-----0--------------------|

G7M/B   G7M/Bb
 Wired, tired
G7M(9)/A   F#9/G#
 All so    uninspired
G9    D/F#     Em7
 What weighs me down ?
G7M/B   G7M/Bb     G7M(9)/A   F#9/G#
 Barely  breathing, loosing    sense of meaning
G9    D/F#     Em7
 What weighs me down ?
G7M/B   G7M/Bb    G7M(9)/A   F#9/G#
 ara...  ara....   arara...   larara
G9    D/F#     Em7
 What weighs me down ?
G9    D/F#     Em7
 What weighs me down?

[Refrão]
 
        A4/D                G5
E|-0---0-0-0--0-0------3---3-3-3--3-3---|
B|-3---3-3-3--3-3------3---3-3-3--3-3---|
G|-2---2-2-2--2-2------0---0-0-0--0-0---|
D|-0---0-0-0--0-0------2---2-2-2--2-2---|
A|-x---x-x-x--x-x------0---0-0-0--0-0---|
E|-x---x-x-x--x-x------3---3-3-3--3-3---|

  A4/D          G5
Aspire, there's so much to live for
  A4/D          G5
Inspire,there's so much to give
  A4/D          G5
Aspire, there's so much to live for
  A4/D          G5
Inspire,there's so much to give

G7M/B    G7M/Bb    G7M(9)/A   F#9/G#
 Under... going...  never...   really knowing
G9    D/F#     Em7
 What weighs me down
G7M/B    G7M/Bb    G7M(9)/A   F#9/G#
 Under... going...  never...   really knowing
G9    D/F#     Em7
 What weighs me down
G9    D/F#     Em7
 What weighs me down
G9    D/F#     Em7     Em7
 What weighs me down, down

  A4/D          G5
Aspire, there's so much to live for
  A4/D          G5
Inspire,there's so much to give
  A4/D          G5
Aspire, there's so much to live for
  A4/D          G5
Inspire,there's so much to give
00:00 / 00:00
Outros vídeos desta música
Repetir
Outros vídeos desta música
Composição de Tiago Iorc
Colaboração e revisão:
  • KC Sousa
439 exibições
    • ½ Tom
    • A
    • Bb
    • B
    • C
    • Db
    • D
    • Eb
    • E
    • F
    • F#
    • G
    • Ab
  • Adicionar à lista

    0 comentários

    Ver todos os comentários

    Conseguiu tocar?

    0 Tocaram 0 Ainda não

    Grave um vídeo tocando What Weighs Me Down e nos envie!

    Entre para oCifra Club PRO

    Tenha acesso a benefícios exclusivos no App e no Site

    • Chega de anúncios

    • Prioridade de compra em lançamentos

    • Mais recursos no app do Afinador

    • Atendimento Prioritário

    • Descontos nos produtos Cifra Club

    • Ajude a produzir mais conteúdo

    00:00 / 00:00

    Cifra Club Pro

    Aproveite o Cifra Club com benefícios exclusivos e sem anúncios
    Cifra Club Pro
    Aproveite o Cifra Club com benefícios exclusivos e sem anúncios
    OK