Cifra Club

Cabrobró

Tianastácia

Tab de baixo: Principal
exibições 21.343
Introdução:

Parte 1
G|----------------------------------------------|
D|----------------------------------------------|
A|----------------------------------------------|
E|-12/-3-6-5-0-3/6-5-5-5-0--3-6-5-0-3/6-5-5-5-0-|
 
                  P
G|----------------------------------------------|
D|----------------7-----------------------------|
A|----------------------------------------------|
E|-3-6-5-0-3-6-5----0-3-6-5-0-3/6-5-5-5-0-------|

Parte 2
G|----------------------------------------------|
D|----------------------------------------------|
A|----------------------------------------------|
E|-5-5-5--6-6-3-3-6--5-5-5--6-6-3-3-6--5-5-5----|

G|----------------------------------------------|
D|----------------------------------------------|
A|----------------------------------------------|
E|-6-6-3-3-6--5-5-5-6-5-5-5\--------------------|

[Primeira Parte]

Ouvi falar loucura vem de berço...

Parte 1
G|----------------------------------------------|
D|------5-3------------3h5----5-3---------------|
A|-----------5-----5-5------------5-5-----------|
E|-3-3----------3----------3----------3--0-0----|

G|----------------------------------------------|
D|------------------5--5-3---------5--5-3-------|
A|-------------------------5--------------5-----|
E|-1-1--2-2--3-3-3-----------3-3-3--------------|

G|----------------------------------------------|
D|------5-3------------5------------------------|
A|----------5-3---------------------------------|
E|-3-3----------6-0-3-----3---------------------|

Parte 2
G|----------------------------------------------|
D|----------5-3-------3h5----5-3----------------|
A|--------------5---5------------5-5------------|
E|-0-1-2-3--------3-------3----------3-3-0-0----|

G|----------------------------------------------|
D|-----------------5--5-3----------5--5-3-------|
A|------------------------5---------------5-----|
E|-1-1-2-2--3-3-3-----------3-3-3---------------|

G|----------------------------------------------|
D|------5-3------------5------5----5------------|
A|----------5-3---------------------------------|
E|-3-3----------6-0-3----3-3----3----3----------|


[Refrão]

Só não vacilo, brow...

Parte 1
G|-----5-----5--------5----5--------------------|
D|----------------------------------------------|
A|-3-----3-----3-0-3----3---3--0----------------|
E|----------------------------------------------|

G|----------------------------------------------|
D|----5------5------5-----5---------------------|
A|----------------------------------------------|
E|-3----3-3----3-3----3-3-----------------------|

Parte 2
G|------7----7--------5-----5-------------------|
D|----------------------------------------------|
A|-0-5----5----5-0-3----3-----3-----------------|
E|------------------------------0---------------|

G|----------------------------------------------|
D|----5----5----------5-------5-----------------|
A|----------------------------------------------|
E|-3----3----3--3-3-3----3-3--------------------|

Parte 3
G|------------7---------------------------------|
D|----------------------------------------------|
A|-0-5-5---5-----0-3-3--0-3---------------------|
E|---------------------------0------------------|

G|----------------------------------------------|
D|----5----5----------5-------5-----------------|
A|----------------------------------------------|
E|-3----3----3--3-3-3----3-3----0---------------|

Introdução 2:

Parte 1
G|----------------------------------------------|
D|----------------------------------------------|
A|----------------------------------------------|
E|-3-6-5-0-3/6-5-5-5-0--3-6-5-0-3/6-5-5-5-0-----|

Parte 2
G|----------------------------------------------|
D|----------------------------------------------|
A|----------------------------------------------|
E|-5-5-5--6-6-3-3-6--5-5-5--6-6-3-3-6--5-5-5----|

G|----------------------------------------------|
D|--------------------7-7-7-7-------------------|
A|----------------5/7---------------------------|
E|-6-6-3-3-6--5-5-------------------------------|


[Segunda Parte]

Ouvi falar loucura vem de berço...

Parte 1
G|----------------------------------------------|
D|------5-3------------3h5----5-3---------------|
A|-----------5-----5-5------------5-5-----------|
E|-3-3----------3----------3-----------3-3------|

G|----------------------------------------------|
D|---------------5--5-3---------5--5-3----------|
A|----------------------5--------------5--------|
E|-0-1-2--3-3-3-----------3-3-3-----------------|

G|----------------------------------------------|
D|------5-3-------------------------------------|
A|----------5-3---------------------------------|
E|-3-3----------6-0-3--3------------------------|

Parte 2
G|----------------------------------------------|
D|----------5-3-------3h5----5-3----------------|
A|--------------5---5------------5-5------------|
E|-0-1-2-3--------3-------3-----------3-3-0-0---|

G|----------------------------------------------|
D|-----------------5--5-3----------5--5-3-------|
A|------------------------5---------------5-----|
E|-1-1-2-2--3-3-3-----------3-3-3---------------|

G|----------------------------------------------|
D|------5-3------------5------5----5------------|
A|----------5-3---------------------------------|
E|-3-3----------6-0-3----3-3----3----3----------|

[Refrão 2]

Só não vacilo, brow...

Parte 1
G|-----5-----5--------5----5--------------------|
D|----------------------------------------------|
A|-3-----3-----3-0-3----3---3--0----------------|
E|----------------------------------------------|

G|----------------------------------------------|
D|----5------5------5-----5---------------------|
A|----------------------------------------------|
E|-3----3-3----3-3----3-3-----------------------|

Parte 2
G|------7----7--------5-----5-------------------|
D|----------------------------------------------|
A|-0-5----5----5-0-3----3-----3-----------------|
E|------------------------------0---------------|

G|----------------------------------------------|
D|----5----5----------5-------5-----------------|
A|----------------------------------------------|
E|-3----3----3--3-3-3----3-3--------------------|

Parte 3
G|------------7---------------------------------|
D|----------------------------------------------|
A|-0-5-5---5-----0-3-3--0-3---------------------|
E|---------------------------0------------------|

G|----------------------------------------------|
D|----5----5----------5-------5-----------------|
A|----------------------------------------------|
E|-3----3----3--3-3-3----3-3----0---------------|

[Introdução 3]

Parte 1 (2x)
G|----------------------------------------------|
D|----------------------------------------------|
A|----------------------------------------------|
E|-3-6-5-0-3/6-5-5-5-0--3-6-5-0-3/6-5-5-5-0-----|

Parte 2
G|----------------------------------------------|
D|----------------------------------------------|
A|----------------------------------------------|
E|-5-5-5--6-6-3-3-6--5-5-5--6-6-3-3-6--5-5-5----|

G|----------------------------------------------|
D|----------------------------------------------|
A|----------------------------------------------|
E|-6-6-3-3-6--5-5-5-6-5-0-1-2-3-----------------|

[Terceira Parte]

Ouvi falar loucura vem de berço...meu pai...

Parte 1
G|----------------------------------------------|
D|----------------------------------------------|
A|-3/10\----------------------------------------|
E|--------0-1-2---------------------------------|

Parte 2
G|----------------------------------------------|
D|------5-3-------3h5----5-3--------------------|
A|----------5---5------------5-5----------------|
E|-3-3--------3-------3-----------3-3-0-0-------|

G|----------------------------------------------|
D|-----------------5--5-3----------5--5-3-------|
A|------------------------5---------------5-----|
E|-1-1-2-2--3-3-3-----------3-3-3---------------|

G|----------------------------------------------|
D|------5-3------------5------5----5------------|
A|----------5-3---------------------------------|
E|-3-3----------6-0-3----3-3----3----3----------|


[Refrão 3 - Final]

Só não vacilo, brow...

Parte 1
G|----------5-----------------------------------|
D|----------------------------------------------|
A|-3-3-0-3-----0-3--3-3-0-3-3-------------------|
E|----------------------------0-----------------|

G|----------------------------------------------|
D|----5------5----------------------------------|
A|----------------------------------------------|
E|-3----3-3----3-3--3--3-3----------------------|

Parte 2
G|----------------5-----------------------------|
D|-----------------------------5----------------|
A|-5-0-5-5--5--3----0-3-3-----------------------|
E|------------------------0-3----0-3-3----------|

G|----------------------------------------------|
D|----------------------------------------------|
A|----------------------------------------------|
E|-3-3-3-3--3-3-3-3-----------------------------|

Parte 3 (2x)
G|-------------7--------------------------------|
D|----------------------------------------------|
A|-0-5--5-5-5----0-3-3--3-3-3-------------------|
E|----------------------------0-3-3--3-3-3------|

G|----------------------------------------------|
D|----------------------------------------------|
A|----------------------------------------------|
E|-3-3-3-3--3-3-3-3-----------------------------|

Parte 4
G|------7--------------5-------5----------------|
D|----------------------------------------------|
A|-0-5----0-5-5--5--3----0-3-3------------------|
E|----------------------------------------------|

G|----------------------------------------------|
D|------5------5-----5--------------------------|
A|----------------------------------------------|
E|-3-3----3-3----3-3---3-3/11\--3---------------|
Colaboração e revisão:
  • Reginaldo Costa

0 comentários

    mostrar mais comentários

    Conseguiu tocar?

    1tocaram1ainda não

    Grave um vídeo tocando Cabrobró e mande pra gente!

    00:00 / 00:00
    outros vídeos desta música
    repetirqualidadeautomática
    Outro vídeos desta música
      00:00 / 00:00
      automática
      Capítulos
      • Tocando a música
      • Apresentação / Equipamentos
      • Configuração Pedal
      • Dicas Iniciais
      • Introdução - Parte 1 de 2
      • Introdução - Parte 2 de 2
      • Primeira Parte - Parte 1 de 2
      • Primeira Parte - Parte 2 de 2
      • Dicas Refrão e Introdução 2
      • Refrão - Parte 1 de 3
      • Refrão - Parte 2 de 3
      • Refrão - Parte 3 de 3
      • Introdução 2 - Parte 1 de 2
      • Introdução 2 - Parte 2 de 2
      • Dicas Segunda Parte - Terceira Parte
      • Introdução 3 - Parte 1 de 2
      • Introdução 3 - Parte 2 de 2
      • Terceira Parte - Parte 1 de 2
      • Terceira Parte - Parte 2 de 2
      • Refrão Final
      • Refrão Final - Parte 1 de 4
      • Refrão Final - Parte 2 de 4
      • Refrão Final - Parte 3 de 4
      • Refrão Final - Parte 4 de 4
      • Encerramento
      • Ficha Técnica
      OK