Cifra Club

Quem Sabe de Mim Sou Eu

Tiê

Cifra: Principal (violão e guitarra)
tom: Am
[Intro] F  Am  C  G

[Tab - Intro]

E|-------8----------------------------------|
B|-10-------8--------8----------------------|
G|----------------9--------7----------------|
D|------------------------------------------|
A|------------------------------------------|
E|------------------------------------------|

F                   F7M
  Mesmo que eu soubesse
                  C
Que isso me entristece
                    G
Eu não voltaria atrás
F               F7M
  Mesmo no tormento
                  C
De um simples sentimento
                  G
Eu não voltaria atrás

F                      Dm
  E cada gesto que eu faço
       Am          G
Vai ficar, vai marcar
F              Dm
  E cada dia louco
          Am         G
Não vai mudar, vai ficar

[Solo] F  Am  C  G

[Tab - Solo]

E|-------8----------------------------------|
B|-10-------8--------8----------------------|
G|----------------9--------7----------------|
D|------------------------------------------|
A|------------------------------------------|
E|------------------------------------------|

Uh, uh, uh, uh

Ah, ah, ah, ah, ah, ah, ah, ah

Uh, uh, uh, uh

Ah, ah, ah, ah, ah, ah, ah, ah

F                 F7M
  Mesmo que eu soubesse
                 C
Que isso me entristece
                    G
Eu não voltaria atrás
F             F7M
  Mesmo no tormento
                  C
De um simples sentimento
                  G
Eu não voltaria atrás
F                      Dm
  E cada gesto que eu faço
       Am         G
Vai ficar, vai marcar
F               Dm
  E cada dia louco
          Am          G
Não vai mudar, vai ficar

[Solo] F  Am  C  G

[Tab - Solo]

E|-------8----------------------------------|
B|-10-------8--------8----------------------|
G|----------------9--------7----------------|
D|------------------------------------------|
A|------------------------------------------|
E|------------------------------------------|

Uh, uh, uh, uh

Ah, ah, ah, ah, ah, ah, ah, ah

Uh, uh, uh, uh

Ah, ah, ah, ah, ah, ah, ah, ah

Bb                            Am
   Porque eu não posso me arrepender
                         Bb
Só tenho essa vida pra viver
                        G
E a culpa me faz mal demais

[Solo] F  Am  C  G
       F  G  Am  
       G  C  G

[Tab - Solo]

E|-------8----------------------------------|
B|-10-------8--------8----------------------|
G|----------------9--------7----------------|
D|------------------------------------------|
A|------------------------------------------|
E|------------------------------------------|

E|-------8----------------------------------|
B|-10-------8--------8----------------------|
G|----------------9--------7----------------|
D|------------------------------------------|
A|------------------------------------------|
E|------------------------------------------|

Uh, uh, uh, uh

Ah, ah, ah, ah, ah, ah, ah, ah

Uh, uh, uh, uh

Ah, ah, ah, ah, ah, ah, ah, ah

Ah, ah, ah, uh, uh, uh

Ah, ah, ah, ah, ah, ah, ah, ah

Ah, ah, ah, uh, uh, uh, uh

Ah, ah, ah, ah, ah, ah, ah, ah

Ah, ah, ah
00:00 / 00:00
Outros vídeos desta música
Repetir
Outros vídeos desta música
Composição de André Henrique / Tiê Gasparinetti Biral
Colaboração e revisão:
  • napoliana faria
    • ½ Tom
    • Am
    • Bbm
    • Bm
    • Cm
    • C#m
    • Dm
    • Ebm
    • Em
    • Fm
    • F#m
    • Gm
    • G#m
  • Adicionar à lista

    0 comentários

    Ver todos os comentários

    Conseguiu tocar?

    0 Tocaram 0 Ainda não

    Grave um vídeo tocando Quem Sabe de Mim Sou Eu e nos envie!

    00:00 / 00:00

    Cifra Club Pro

    Aproveite o Cifra Club com benefícios exclusivos e sem anúncios
    Cifra Club Pro
    Aproveite o Cifra Club com benefícios exclusivos e sem anúncios
    OK