Cifra Club

La Caja de Pandora

Tierra Santa

Cifra: Principal (violão e guitarra)
tom: E
B||---------------------|----------------------|--------8------------------|
G||--7------------7--9--|--10------------7--9--|--10---------10--9--7------|
D||---------------------|----------------------|-----------------------10--|
A||---------------------|----------------------|---------------------------|
E||---------------------|----------------------|---------------------------|



E|----------------------------|---------------------|----------------------|
B|----------------------------|---------------------|----------------------|
G|--7--9--10--9--7------7--9--|--7------------7--9--|--10------------7--9--|
D|------------------10--------|---------------------|----------------------|
A|----------------------------|---------------------|----------------------|
E|----------------------------|---------------------|----------------------|

E|---------------------------|----------------------------|---------------------|
B|--------8------------------|----------------------------|---------------------|
G|--10---------10--9--7------|--7--9--10--9--7------7--9--|--7------------7--9--|
D|-----------------------10--|------------------10--------|---------------------|
A|---------------------------|----------------------------|---------------------|
E|---------------------------|----------------------------|---------------------|

E|----------------------|---------------------------|----------------------------|
B|----------------------|--------8------------------|----------------------------|
G|--10------------7--9--|--10---------10--9--7------|--7--9--10--9--7------7--9--|
D|----------------------|-----------------------10--|------------------10--------|
A|----------------------|---------------------------|----------------------------|
E|----------------------|---------------------------|----------------------------|

E|---------------------|----------------------|---------------------------|
B|---------------------|----------------------|--------8------------------|
G|--7------------7--9--|--10------------7--9--|--10---------10--9--7------|
D|---------------------|----------------------|-----------------------10--|
A|---------------------|----------------------|---------------------------|
E|---------------------|----------------------|---------------------------|

E|----------------------------|---------------------|----------------------|
B|----------------------------|---------------------|----------------------|
G|--7--9--10--9--7------7--9--|--7------------7--9--|--10------------7--9--|
D|------------------10--------|---------------------|----------------------|
A|----------------------------|---------------------|----------------------|
E|----------------------------|---------------------|----------------------|

E|---------------------------|----------------------------|---------------------|
B|--------8------------------|----------------------------|---------------------|
G|--10---------10--9--7------|--7--9--10--9--7------7--9--|--7------------7--9--|
D|-----------------------10--|------------------10--------|---------------------|
A|---------------------------|----------------------------|---------------------|
E|---------------------------|----------------------------|---------------------|

E|----------------------|---------------------------|----------------------------|
B|----------------------|--------8------------------|----------------------------|
G|--10------------7--9--|--10---------10--9--7------|--7--9--10--9--7------7--9--|
D|----------------------|-----------------------10--|------------------10--------|
A|----------------------|---------------------------|----------------------------|
E|----------------------|---------------------------|----------------------------|

E|---------------------|----------------------|---------------------------|
B|---------------------|----------------------|--------8------------------|
G|--7------------7--9--|--10------------7--9--|--10---------10--9--7------|
D|---------------------|----------------------|-----------------------10--|
A|---------------------|----------------------|---------------------------|
E|---------------------|----------------------|---------------------------|

E|----------------------------|---------------------|----------------------|
B|----------------------------|---------------------|----------------------|
G|--7--9--10--9--7------7--9--|--7------------7--9--|--10------------7--9--|
D|------------------10--------|---------------------|----------------------|
A|----------------------------|---------------------|----------------------|
E|----------------------------|---------------------|----------------------|

E|---------------------------|--------------------------------|
B|--------8------------------|--------------------------------|
G|--10---------10--9--7------|--7--9--10--9--7------7--9------|
D|-----------------------10--|------------------10------------|
A|---------------------------|--------------------------------|
E|---------------------------|--------------------------------|
a qui se termina el intro

aca comienza la guitarra ritmica
E|-----------------------------|-----------------------|
B|-----------------------------|--8--------------------|
G|--10-9-7----7------7-9-10----|-------10-9-7----------|
D|---------10------------------|-----------------------|
A|-----------------------------|-----------------------|
E|-----------------------------|-----------------------|

E|-----------------------------|-------------------------|
B|-----------------------------|--8----10------8---------|
G|--10-9-7----7------7-9-10----|-----------------10-9----|
D|---------10------------------|-------------------------|
A|-----------------------------|-------------------------|
E|-----------------------------|-------------------------|

E|-----------------------------|-----------------------|------------------------|
B|-----------------------------|--8--------------------|------------------------|
G|--10-9-7----7------7-9-10----|-------10-9-7----------|--------------7--9---10-|
D|---------10------------------|-----------------------|------10----------------|
A|-----------------------------|-----------------------|------------------------|
E|-----------------------------|-----------------------|------------------------|

E|-------------------------|-----------------------------|-----------------------|
B|----8-----------8--------|-----------------------------|--8--------------------|
G|-------9----------10-9-7-|--10-9-7----7------7-9-10----|-------10-9-7----------|
D|-------------------------|---------10------------------|-----------------------|
A|-------------------------|-----------------------------|-----------------------|
E|-------------------------|-----------------------------|-----------------------|

E|-----------------------------|-------------------------|
B|-----------------------------|--8----10------8---------|
G|--10-9-7----7------7-9-10----|-----------------10-9----|
D|---------10------------------|-------------------------|
A|-----------------------------|-------------------------|
E|-----------------------------|-------------------------|

E|-----------------------------|-----------------------|------------------------|
B|-----------------------------|--8--------------------|------------------------|
G|--10-9-7----7------7-9-10----|-------10-9-7----------|--------------7--9---10-|
D|---------10------------------|-----------------------|------10----------------|
A|-----------------------------|-----------------------|------------------------|
E|-----------------------------|-----------------------|------------------------|

E|-------------------------|-------------------------| |-----|----|----|----|----|
B|----8-----------8--------|-------------------------| |-----|----|----|----|----|
G|-------9----------10-9-7-|--10-9-7----7/-----------| |*----|----|----|----|----|
D|-------------------------|---------10--------------| |*----|----|----|----|----|
A|-------------------------|-------------------------| |-----|----|----|----|----|
E|-------------------------|-------------------------| |-----|----|----|----|----|

E|----|----|----|----|------------------------|-------------------|
B|----|----|----|----|------------------------|-------------------|
G|----|----|----|----|--------------10-9-7----|--7------7-9-10----|
D|----|----|----|----|---------------------10-|-------------------|
A|----|----|----|----|------------------------|-------------------|
E|----|----|----|----|------------------------|-------------------|

E|-----------------------|-----------------------------|-------------------------|
B|--8--------------------|-----------------------------|--8----10------8---------|
G|-------10-9-7----------|--10-9-7----7------7-9-10----|-----------------10-9----|
D|-----------------------|---------10------------------|-------------------------|
A|-----------------------|-----------------------------|-------------------------|
E|-----------------------|-----------------------------|-------------------------|

E|-----------------------------|-----------------------|------------------------|
B|-----------------------------|--8--------------------|------------------------|
G|--10-9-7----7------7-9-10----|-------10-9-7----------|--------------7--9---10-|
D|---------10------------------|-----------------------|------10----------------|
A|-----------------------------|-----------------------|------------------------|
E|-----------------------------|-----------------------|------------------------|

E|-------------------------|-----------------------------|-----------------------|
B|----8-----------8--------|-----------------------------|--8--------------------|
G|-------9----------10-9-7-|--10-9-7----7------7-9-10----|-------10-9-7----------|
D|-------------------------|---------10------------------|-----------------------|
A|-------------------------|-----------------------------|-----------------------|
E|-------------------------|-----------------------------|-----------------------|

E|-----------------------------|-------------------------|
B|-----------------------------|--8----10------8---------|
G|--10-9-7----7------7-9-10----|-----------------10-9----|
D|---------10------------------|-------------------------|
A|-----------------------------|-------------------------|
E|-----------------------------|-------------------------|

E|-----------------------------|-----------------------|------------------------|
B|-----------------------------|--8--------------------|------------------------|
G|--10-9-7----7------7-9-10----|-------10-9-7----------|--------------7--9---10-|
D|---------10------------------|-----------------------|------10----------------|
A|-----------------------------|-----------------------|------------------------|
E|-----------------------------|-----------------------|------------------------|

E|-----------------------------------|-------------------|------|------|------|
B|----8-----------8------------------|-------------------|------|------|------|
G|-------9----------10-9-7-10-9-7----|--7/---------------|------|------|------|
D|--------------------------------10-|-------------------|------|------|------|
A|-----------------------------------|-------------------|------|------|------|
E|-----------------------------------|-------------------|------|------|------|

               aqui empieza el solo
E|------|------|-------------------|--------------------------|
B|------|------|-------------------|-------------------3-3b---|
G|------|------|--3----------------|--5------2-3-5-3-5--------|
D|------|------|-------------------|--------------------------|
A|------|------|-------------------|--------------------------|
E|------|------|-------------------|--------------------------|

E|---------------------|-----------------------------|-------------------|
B|------3---3~---------|-------------8----8-8b--8----|-------------------|
G|--------5------------|--------9-10---10---------10-|--7----------------|
D|---------------------|-----------------------------|-------------------|
A|---------------------|-----------------------------|-------------------|
E|---------------------|-----------------------------|-------------------|

E|-----------------------------------|------------------------------|
B|--13/-x----10--13h10h13h10--13-10--|--13b-----13b-----13--10------|
G|-----------------------------------|--------------------------12--|
D|-----------------------------------|------------------------------|
A|-----------------------------------|------------------------------|
E|-----------------------------------|------------------------------|

E|------------------------------------------|----------------22/-x--|
B|--10----------------------10--10b---10----|--10~------------------|
G|------12--10------10--12---------------12-|-----------------------|
D|--------------12--------------------------|-----------------------|
A|------------------------------------------|-----------------------|
E|------------------------------------------|-----------------------|

E|------------------------15------15--17--15--17--|--20b-----20b-----17-20-18-17-|
B|--17----17--18--17--18------18------------------|------------------------------|
G|------------------------------------------------|------------------------------|
D|------------------------------------------------|------------------------------|
A|------------------------------------------------|------------------------------|
E|------------------------------------------------|------------------------------|

E|----------------------------|--------------------------15--15r-----|
B|--20-18-----------17----18--|--20--18--17------17--18--------------|
G|--------19~-----------------|--------------19----------------------|
D|----------------------------|--------------------------------------|
A|----------------------------|--------------------------------------|
E|----------------------------|--------------------------------------|

E|--17--15--------------15------------|------------------------------------|
B|----------18--15--18------18r-------|------------------------------------|
G|------------------------------------|--10--9--10--12--10r-------10h9h10b-|
D|------------------------------------|------------------------------------|
A|------------------------------------|------------------------------------|
E|------------------------------------|------------------------------------|

E|----15------15----------------------|------------------------------|
B|----------------13------------------|------------------------------|
G|--------12---------14-12----12-12r--|--------------------------12--|
D|-------------------------15---------|--15-12~----------12--15------|
A|------------------------------------|------------------------------|
E|------------------------------------|------------------------------|

E|--------------------------------------------|----------------------------|
B|------13------------------------------------|----------------------------|
G|--14------14--12-14-12----12----------12b---|--12~-----------------------|
D|-----------------------15----15-12-15-------|----------------------------|
A|--------------------------------------------|----------------15--12--15--|
E|--------------------------------------------|----------------------------|

E|--------------------------|--------------------------------------------------|
B|--------------------------|--------------13------13--15--13--15--17--15--13--|
G|--------------------------|--15--14--15------15------------------------------|
D|--12b-----12----12~-------|--------------------------------------------------|
A|-------------15-----------|--------------------------------------------------|
E|--------------------------|--------------------------------------------------|

E|--------------------------------------15------15--|--15b-----15~---------|
B|------13--15--17--15--17--18--17--18------18------|----------------------|
G|--15----------------------------------------------|----------------------|
D|--------------------------------------------------|----------------------|
A|--------------------------------------------------|----------------------|
E|--------------------------------------------------|----------------------|

E|--17b-----17b---------|--20~---------------|------------------|----|----|----|
B|----------------------|--------------------|------------------|----|----|----|
G|----------------------|--------------------|------------------|----|----|----|
D|----------------------|--------------------|------------------|----|----|----|
A|----------------------|--------------------|------------------|----|----|----|
E|----------------------|--------------------|------------------|----|----|----|

E|--------------------|----------------------------|--------------------|
B|--------------------|----------------------------|--------------------|
G|--7------7~---------|--------7--9--10--9--7------|--7------7~---------|
D|--------------------|----10------------------10--|--------------------|
A|--------------------|----------------------------|--------------------|
E|--------------------|----------------------------|--------------------|

E|----------------------------|------------------------|
B|----------------------------|--8---------------------|
G|--------7--9--10--9--7------|---------10-9-10--------|
D|----10------------------10--|------------------------|
A|----------------------------|------------------------|
E|----------------------------|------------------------|

E|----------------------------|--------------------|--------------------|
B|----------------------------|--------------------|--------------13----|
G|--------7--9--10--9--7------|--7------7~---------|--------------------|
D|----10------------------10--|--------------------|--------------------|
A|----------------------------|--------------------|--------------------|
E|----------------------------|--------------------|--------------------|

E|----------------------|------------12--12r-----------|----------------------|
B|--15------15~---------|----13--15------------15--13--|--15------15~---------|
G|----------------------|------------------------------|----------------------|
D|----------------------|------------------------------|----------------------|
A|----------------------|------------------------------|----------------------|
E|----------------------|------------------------------|----------------------|

E|------------12--12r-----------|--15------13-12-13--------|
B|----13--15------------15--13--|--------------------------|
G|------------------------------|--------------------------|
D|------------------------------|--------------------------|
A|------------------------------|--------------------------|
E|------------------------------|--------------------------|

E|------------12--12r-----------|----------------------|------------------|
B|----13--15------------15--13--|--15------15~---------|------------------|
G|------------------------------|----------------------|------------------|
D|------------------------------|----------------------|------------------|
A|------------------------------|----------------------|------------------|
E|------------------------------|----------------------|------------------|

E|------------------------|------------------------|----------------------------|
B|--------------13--------|------------------------|----------------------------|
G|--15----------------15--|--14----------12----10--|--12-10----10-12~-----------|
D|------------------------|------------------------|--------12------------------|
A|------------------------|------------------------|----------------------------|
E|------------------------|------------------------|----------------------------|

E|------------------|------------------------------|----------------------|
B|------------------|------------------------------|--13------------------|
G|------------------|--15--------15----14----15----|--------------15------|
D|------------------|------------------------------|----------------------|
A|------------------|------------------------------|----------------------|
E|------------------|------------------------------|----------------------|

E|--------------------|--------------------|--------------------|
B|--------------------|--17----------------|--15~---------------|
G|--14----------------|--------------------|--------------------|
D|--------------------|--------------------|--------------------|
A|--------------------|--------------------|--------------------|
E|--------------------|--------------------|--------------------|

E|----|----|------------------------|-------------------|-----------------------|
B|----|----|------------------------|-------------------|--8--------------------|
G|----|----|--------------10-9-7----|--7------7-9-10----|-------10-9-7----------|
D|----|----|---------------------10-|-------------------|-----------------------|
A|----|----|------------------------|-------------------|-----------------------|
E|----|----|------------------------|-------------------|-----------------------|

E|-----------------------------|-------------------------|
B|-----------------------------|--8----10------8---------|
G|--10-9-7----7------7-9-10----|-----------------10-9----|
D|---------10------------------|-------------------------|
A|-----------------------------|-------------------------|
E|-----------------------------|-------------------------|

E|-----------------------------|-----------------------|------------------------|
B|-----------------------------|--8--------------------|------------------------|
G|--10-9-7----7------7-9-10----|-------10-9-7----------|--------------7--9---10-|
D|---------10------------------|-----------------------|------10----------------|
A|-----------------------------|-----------------------|------------------------|
E|-----------------------------|-----------------------|------------------------|

E|-------------------------|-----------------------------|-----------------------|
B|----8-----------8--------|-----------------------------|--8--------------------|
G|-------9----------10-9-7-|--10-9-7----7------7-9-10----|-------10-9-7----------|
D|-------------------------|---------10------------------|-----------------------|
A|-------------------------|-----------------------------|-----------------------|
E|-------------------------|-----------------------------|-----------------------|

E|-----------------------------|-------------------------|
B|-----------------------------|--8----10------8---------|
G|--10-9-7----7------7-9-10----|-----------------10-9----|
D|---------10------------------|-------------------------|
A|-----------------------------|-------------------------|
E|-----------------------------|-------------------------|

E|-----------------------------|-----------------------|------------------------|
B|-----------------------------|--8--------------------|------------------------|
G|--10-9-7----7------7-9-10----|-------10-9-7----------|--------------7--9---10-|
D|---------10------------------|-----------------------|------10----------------|
A|-----------------------------|-----------------------|------------------------|
E|-----------------------------|-----------------------|------------------------|

E|-----------------------------------|-------------------|------------------| |
B|----8-----------8------------------|-------------------|------------------| |
G|-------9----------10-9-7-10-9-7----|--7----------------|------------------| |
D|--------------------------------10-|-------------------|------------------| |
A|-----------------------------------|-------------------|------------------| |
E|-----------------------------------|-------------------|------------------| |
Composição de Tierra Santa
3 exibições
    • ½ Tom
    • A
    • Bb
    • B
    • C
    • Db
    • D
    • Eb
    • E
    • F
    • F#
    • G
    • Ab
  • Adicionar à lista

    0 comentários

    Ver todos os comentários

    Conseguiu tocar?

    0 Tocaram 0 Ainda não

    Grave um vídeo tocando La Caja de Pandora e nos envie!

    00:00 / 00:00
    Outros vídeos desta música
    Repetir Qualidade Automático
    Outros vídeos desta música
    00:00 / 00:00
    Automático

    Cifra Club Pro

    Aproveite o Cifra Club com benefícios exclusivos e sem anúncios
    Cifra Club Pro
    Aproveite o Cifra Club com benefícios exclusivos e sem anúncios
    OK