Cifra Club

Aprenda

Reconquista

Tierra Santa

Cifra: Principal (violão e guitarra)
tom: Bm
E|---------------------------------------------------------------------------|
B|---------------------------------------------------------------------------|
G|--9-------7---9------------------|--9-------7---5------------7^------------|
D|--9-------7---9---5p4-5p4--------|--9-------7---5--0--4--5-----------------|
A|--7--x-x--5---7------------7-5---|--7--x-x--5---3--------------------------|
E|---------------------------------------------------------------------------|
    E          D   E                     E       D   C

                                      x2
E|--------------------------------------------------|------------------------|
B|--------------------------------------------------|------------------------|
G|--9-------7---9------------------5---7------------|---9--------------------|
D|--9-------7---9---5p4-5p4--------5---7------5| ---|---9------4-5-7--5-4----|
A|--7--x-x--5---7------------7-5---3---5------5| ---|---7-----------------7--|
E|-----------------------------------------0--3| ---|------------------------|
    E       D   E                  C   D      G F#      E


VERSO (00:29):
                    x2
E|---------------------------------------------------------------------------|
B|---------------------------------------------------------------------------|
G|--9-----9-----9--7--9-----|--9-----9-----9--7--5--7------------------------|
D|--9-----9-----9--7--9-----|--9-----9-----9--7--5--7---4-5-7--5-4-----------|
A|--7| xxx 7 xxx-7--5--7 xxx-|--7 xxx 7 xxx 7--5--3--5--------------7---------|
E|---------------------------------------------------------------------------|

E|---------------------------------------------------------------------------|
B|---------------------------------------------------------------------------|
G|--9-----9-----9--7--5-----5----5----7----7-----5--7------------------------|
D|--9-----9-----9--7--5-----5----5----7----7-----5--7---4-5-7--5-4-----------|
A|--7| xxx 7 xxx-7--5--3 xxx 3xxx 3xxx 5xxx 5xxx  3--5--------------7---------|
E|---------------------------------------------------------------------------|


ESTRIBILLO (00:53):

E|---------------------------------------------------------------------------|
B|---------------------------------------------------------------------------|
G|--9-------7---9------------------|--9-------7---5------------7^------------|
D|--9-------7---9---5p4-5p4--------|--9-------7---5--0--4--5-----------------|
A|--7--x-x--5---7------------7-5---|--7--x-x--5---3--------------------------|
E|---------------------------------------------------------------------------|

E|---------------------------------------------------------------------------|
B|---------------------------------------------------------------------------|
G|--9-------7---9------------------5------7------5------7--7-----------------|
D|--9-------7---9---5p4-5p4--------5------7------5------7--7-----------------|
A|--7--x-x--5---7------------7-5---3| ···· 5 ···· 3 ···· 5--5-----------------|
E|---------------------------------------------------------------------------|


RIFF (01:13) (Versión 2):

E|---------------------------------------------------------------------------|
B|---------------------------------------------------------------------------|
G|---------------------------------|--------------5------------7^------------|
D|--2-------5---7------------------|--2-------5---5--------------------------|
A|--2-------5---7---3p2-3p2--------|--2-------5---3--------------------------|
E|--0--x-x--3---5------------3-2------0--x-x--3------0--2--3-----------------|
    E       G   A                     E       G   C

                                      x2
E|--------------------------------------------------|------------------------|
B|--------------------------------------------------|------------------------|
G|---------------------------------5---7------------|------------------------|
D|--2-------5---7------------------5---7------5| ---|---2------4-5-7--5-4----|
A|--2--x-x--5---7---3p2-3p2--------3---5------5| ---|---2-----------------7--|
E|--0-------3---5------------3-2-----------0--3| ---|---0--------------------|
    E       G   A                  C   D      G F#      E
Compositor não encontrado.
1 exibições
    • ½ Tom
    • Am
    • Bbm
    • Bm
    • Cm
    • C#m
    • Dm
    • Ebm
    • Em
    • Fm
    • F#m
    • Gm
    • G#m
  • Adicionar à lista

    0 comentários

    Ver todos os comentários

    Conseguiu tocar?

    0 Tocaram 0 Ainda não

    Grave um vídeo tocando Reconquista e nos envie!

    00:00 / 00:00
    Outros vídeos desta música
    Repetir Qualidade Automático
    Outros vídeos desta música
    00:00 / 00:00
    Automático

    Cifra Club Pro

    Aproveite o Cifra Club com benefícios exclusivos e sem anúncios
    Cifra Club Pro
    Aproveite o Cifra Club com benefícios exclusivos e sem anúncios
    OK