Cifra Club

Sangre De Reyes

Tierra Santa

Cifra: Principal (violão e guitarra)
tom: Em
E|---------------------------------|
B|----------10---------------------|
G|-9--11-12----12-11-9---9-------9-|
D|--------------------------12-9---|
A|---------------------------------|
E|---------------------------------|

E|-------------------------------------------------------|
B|-------------------------------------------------------|
G|-------------------9---------------------------------5-|
D|-------------------9---------------------------------5-|
A|-------------------7---------------------------------3-|
E|-------------------------------------------------------|

E|----------------------------------------------------------|
B|---------10-------12-10-----------10-------12-13-12-10-12-|
G|-9-11-12----12-11---------9-11-12----12-11----------------|
D|----------------------------------------------------------|
A|----------------------------------------------------------|
E|----------------------------------------------------------|

E|-------------------------------------------------------|
B|-------------------------------------------------------|
G|-----------------------------------------------------7-|
D|-------------------5---------------------------------7-|
A|-------------------5---------------------------------5-|
E|-------------------3-----------------------------------|

Letra
Se fue buscando otro lugar, dejo su tierra y se marcho de alli
E|----------------------------------------------------------------------|
B|----------------------------------------------------------------------|
G|-9-------------------------------------------------------5------5-7-9-|
D|-9-------------------------------------------------------5------5-7-9-|
A|-7-77777777777777777777777777777777777777777777777777777-3------3-5-7-|
E|----------------------------------------------------------------------|

E|-----------------------------------------------------------|
B|-----------------------------------------------------------|
G|-9-------------------------------------------------------5-|
D|-9-------------------------------------------------------5-|
A|-7-77777777777777777777777777777777777777777777777777777-3-|
E|-----------------------------------------------------------|

Riff 1
Y en la noche recuerda a su amor, implorando volver donde un dia la dejo
                                                           Primer final
E|--------------------------------------------------------|----------------|
B|--------------------------------------------------------|----------------|
G|-7------------9----------5----7------------9----------5-|---------7----7-|
D|-7------------9----------5----7------------9----------5-|---------7----7-|
A|-5------------7----------3----5------------7----------3-|---------5----5-|
E|--------------------------------------------------------|----------------|

Segundo final
E|--------------------------------|
B|--------------------------------|
G|-7------------9----------5----7-|
D|-7------------9----------5----7-|
A|-5------------7----------3----5-|
E|--------------------------------|

Coro
   Sangre de reyes,        por sus venas aun corre sangre azul,
E|-----------------------------------------------------------|
B|-----------------------------------------------------------|
G|-5---7---9--9-7-7-7-5-7--7----7---7-7--10--10--9--9--5---7-|
D|-------------------7---------------------------------------|
A|-----------------------------------------------------------|
E|-----------------------------------------------------------|

   Sangre de reyes   que fluye entre los fieles que siguen a su rey
E|-7--9---11-11-9-7-9-3| —-5--7--9--9---7--5--7-----7-9----10--12-|
B|----------------------------------------------------------------|
G|----------------------------------------------------------------|
D|----------------------------------------------------------------|
A|----------------------------------------------------------------|
E|----------------------------------------------------------------|

Interludio                                                    x2
E|-----------------------------------------------------------|
B|---8-7-8-7-8-10---8-7-8-7-------8-7-8-7-8-10-8-8-7---7-----|
G|-9--------------9---------9-7-9--------------------9---9-7-|
D|-----------------------------------------------------------|
A|-----------------------------------------------------------|
E|-----------------------------------------------------------|

E|-------------------------------------------------------------------------------|
B|----13-12-13-12-13-15----13-12-13----------13-12-13-12-15-13-13-12----12-------|
G|-14-------------------14----------14-12-14-------------------------14----14-12-|
D|-------------------------------------------------------------------------------|
A|-------------------------------------------------------------------------------|
E|-------------------------------------------------------------------------------|

Final
E|----------------------------------------------------7----------------|
B|-----------7-8-------10-8-7-8-7-------------7-8-10----10-8-7-8-7-----|
G|-9-7-9-7-9------9--9------------9--7-9-7-9-----------------------7-9-|
D|---------------------------------------------------------------------|
A|---------------------------------------------------------------------|
E|---------------------------------------------------------------------|

Estructura de la cancion
Intro x2
Letra
Riff 1
Intro
Letra
Riff 1
Coro
Interludio
Ritmo de solo (es el mismo ritmo del intro)
Intro
Letra
Riff 1
Coro
Final
FIN
Composição de Tierra Santa
    • ½ Tom
    • Am
    • Bbm
    • Bm
    • Cm
    • C#m
    • Dm
    • Ebm
    • Em
    • Fm
    • F#m
    • Gm
    • G#m
  • Adicionar à lista

    0 comentários

    Ver todos os comentários

    Conseguiu tocar?

    0 Tocaram 0 Ainda não

    Grave um vídeo tocando Sangre De Reyes e nos envie!

    00:00 / 00:00
    Outros vídeos desta música
    Repetir Qualidade Automático
    Outros vídeos desta música
    00:00 / 00:00
    Automático

    Cifra Club Pro

    Aproveite o Cifra Club com benefícios exclusivos e sem anúncios
    Cifra Club Pro
    Aproveite o Cifra Club com benefícios exclusivos e sem anúncios
    OK