Cifra Club

Tierras De Leyenda

Tierra Santa

Cifra: Principal (violão e guitarra)
tom: D
Intro
E|---------------------------------------------|
B|---------------------------------------------| Esta parte final de la intro
G|-\2-----------------------------------------| la hago con Palm Mute y a ojo
D|-\2-----------------------------------------| bajo la mano izquierda de mas
A|-\0-------------------------xxxxxxxxxxxxx5--| o menos el traste 12 hasta el
E|---------------------------------------------| 5. Que cada cual escuche la
                             PM..............    cancion y lo haga como mejor
                                                 le suene.

Riff 1                                     x4
E|-------------------------------------------|
B|-------------------------------------------|
G|-------------------------------------------|
D|------7---------5---------4---------5------|
A|--5p0---000-5p0---000-5p0---000-5p0---000--|
E|-------------------------------------------|


Riff 2a                                                        Primer Final
                                                        ...................
E|-------------------------------------------------------------------------|
B|-------------------------------------------------------------------------|
G|--7--5----5--4--5--7--5--4--7--5----5--4--5--7--5--4---2--------2--------|
D|--7--5----5--4--5--7--5--4--7--5----5--4--5--7--5--4---2--------2--------|
A|--5--3----3--2--3--5--3--2--5--3----3--2--3--5--3--2---0--------0--------|
E|-------------------------------------------------------------------------|

    Segundo Final
  ...............
E|---------------|
B|---------------|
G|---------------|
D|-- Riff 1 x2 --|
A|---------------|
E|---------------|

Riff 3
E|--------------------------------------|
B|--------------------------------------| Esto son todo 0 y son muchos para
G|--------------------------------------| contarlos. Escuchad la cancion y
D|--------------------------------------| tocad los que creais que son.
A|-000000000000000(...)000000000000000--|
E|--------------------------------------|

Riff 4
E|---------|
B|---------|
G|--7---5--|
D|--7---5--|
A|--5---3--|
E|---------|

Riff 3
E|--------------------------------------|
B|--------------------------------------|
G|--------------------------------------|
D|--------------------------------------|
A|-000000000000000(...)000000000000000--|
E|--------------------------------------|

Riff 5
E|--------------|
B|--------------|
G|--------------|
D|--3-----5-----|
A|--3-----5-----|
E|--1-----3-----|

Riff 1
E|-------------------------------------------|
B|-------------------------------------------|
G|-------------------------------------------|
D|------7---------5---------4---------5------|
A|--5p0---000-5p0---000-5p0---000-5p0---000--|
E|-------------------------------------------|

Riff 5
Riff 1
Riff 3
Riff 4
Riff 3
Riff 5
Riff 1
Riff 5
Riff 1 x2

Riff 2b
E|------------------------------------------------------|
B|------------------------------------------------------|
G|--7--5----5--4--5--7--5--4--7--5----5--4--5--7--5--4--|
D|--7--5----5--4--5--7--5--4--7--5----5--4--5--7--5--4--|
A|--5--3----3--2--3--5--3--2--5--3----3--2--3--5--3--2--|
E|------------------------------------------------------|

Riff 6                      x4
E|----------------------------|
B|----------------------------|
G|----------------------------|
D|----------------------------|
A|--3p0-00-3p0-00-3p0-00-000--|
E|----------------------------|

Solo

Ritmo bajo el solo
E|----------------------------|----------------------------|
B|----------------------------|----------------------------|
G|----------------------------| *--------------------------*|
D|----------------------------| *--------------------------*|
A|--5555555555555555555555555-|--3p0-00-000-3p0-00-5p0-00--|
E|----------------------------|----------------------------|
  PM.........................

E|----------------------------|----------------------------|
B|----------------------------|----------------------------|
G|----------------------------| *--------------------------*|
D|----------------------------| *--------------------------*|
A|--555555555555555555555555--|--3p0-00-000-3p0-00-5p0-00--|
E|----------------------------|----------------------------|
  PM........................

E|----------------------------|----------------------------|
B|----------------------------|----------------------------|
G|----------------------------| *--------------------------*|
D|----------------------------| *--------------------------*|
A|----------------------------|--3p0-00-000-3p0-00-5p0-00--|
E|--111111111113333333333333--|----------------------------|
  PM........................

E|------------------------------------------------------|
B|------------------------------------------------------| Aqui al igual que
G|------------------------------------------------------| en el riff 3 no he
D|------------------------------------------------------| contado las notas
A|------------------------------------------------------| con PM. Tocando
E|--11111111111333333333333300000000000000000000000000--| encima de la cancion
  PM..................................................    no tendreis problemas.

Riff 3
Riff 4
Riff 3
Riff 5
Riff 1
Riff 5
Riff 1
Riff 5
Riff 1
Riff 5
Riff 1 x2
Riff 2b

Riff 7                      x4
E|----------------------------|
B|----------------------------|
G|----------------------------|
D|----------------------------|
A|--3p0-00-000-3p0-00-5p0-00--|
E|----------------------------|

Riff 8
E|-------------------|
B|-------------------|
G|--7-7-7--5-5-5--4--|
D|--7-7-7--5-5-5--4--|
A|--5-5-5--3-3-3--2--|
E|-------------------|

Riff 7 x2
Riff 8
Riff 7 x2

Riff 9
E|-------------------|
B|-------------------|
G|--9-9-9--7-7-7--5--|
D|--9-9-9--7-7-7--5--|
A|--7-7-7--5-5-5--3--|
E|-------------------|

Riff 7 x2
Riff 8

Final
E|-----------------------------|
B|-----------------------------|
G|--2---------2----------------|
D|--2---------2--| Final brusco--|
A|--0---------0----------------|
E|-----------------------------|
Composição de Tierra Santa
3 exibições
    • ½ Tom
    • A
    • Bb
    • B
    • C
    • Db
    • D
    • Eb
    • E
    • F
    • F#
    • G
    • Ab
  • Adicionar à lista

    0 comentários

    Ver todos os comentários

    Conseguiu tocar?

    0 Tocaram 0 Ainda não

    Grave um vídeo tocando Tierras De Leyenda e nos envie!

    00:00 / 00:00
    Outros vídeos desta música
    Repetir Qualidade Automático
    Outros vídeos desta música
    00:00 / 00:00
    Automático

    Cifra Club Pro

    Aproveite o Cifra Club com benefícios exclusivos e sem anúncios
    Cifra Club Pro
    Aproveite o Cifra Club com benefícios exclusivos e sem anúncios
    OK