Cifra Club

Una Juventud Perdida

Tierra Santa

Cifra: Principal (violão e guitarra)
tom: C
E|--------------------------------------------------------------|
B|--------------------------------------------------------------|
G|--------------------------------------------------------------|
D|-3/-7---------------------------------------------------------|
A|-3/-7---------------------------------------------------------|
E|-1/-5-5555555555p| m--5-7-9-7-5-7-5-5555555555pm-5-9-7-5-7-5----

E|--------------------------------------------------------------|
B|--------------------------------------------------------------|
G|--------------------------------------------------------------|
D|--------------------------------------------------------3~~~7-|
A|--------------------------------------------------------3~~~7-|
E|-5-7-9-7-5-7-5--555555555p| m--5-7-9-7-5-7-5--55555555pm--1~~~5-

E|--------------------------------------------------------------|
B|--------------------------------------------------------------|
G|--------------------------------------------------------------|
D|--------------------------3-7~~~-------------------------7-3--|
A|--------------------------3-7~~~-------------------------7-3--|
E|-5555555p| m--5-7-9-7-5-7-5-1-5~~~-5555555pm-5-7-9-7-5-7-5-5-1--

E|-----------------------------------------------------|
B|-----------------------------------------------------|
G|-----------------------------------------------------|
D|-5-----------| y perdioooooo--3-3---dejo alli su vida--
A|-5--------------------------3-3----------------------|
E|-3-3333333p| m----------------1-1-pm-------------------

E|-------------------------------------------------------------------|
B|------------------------------------------------------------------|
G|------------------------------------------------------------------|
D|-7--------------3------------7-----------5------------9-----------|
A|-7--------------3------------7-----------5------------9-----------|
E|-5-555555555p| m-/1-11111111pm/5-5555555pm/3-33333333pm-7-7777777pm-

E|----------------------------------------------------------------|
B|----------------------------------------------------------------|
G|----------------------------------------------------------------|
D|-3-----------5----------3-----------------5------------7-~~~----|
A|-3-----------5----------3-----------------5------------7-~~-----|
E|-1-111111p| m/-3-333333pm-1-1111111111111pm-3-33333333pm-5-555555-

E|---------------------------------------------------------------|
B|---------------------------------------------------------------|
G|---------------------------------------------------------------|
D|---------------7------------7~~~~------------------------------|
A|---------------7------------7~~~~------------------------------|
E|-5-7-9-7-5-7-5-5-55555555p| m-5~~~~-5-7-9-7-5-7-5--55555555pm----

E|---------------------------------------------------------------|
B|---------------------------------------------------------------|
G|---------------------------------------------------------------|
D|----------------7-------------------------3~~~7----------------|
A|----------------7-------------------------3~~~7----------------|
E|-5-7-9-7-5-7-5--5-555555p| m-5-7-9-7-5-7-5--1~~~5-5555555pm------

E|-------------------------------------------------------------------|
B|-------------------------------------------------------------------|
G|-------------------------------------------------------------------|
D|--------------/3~~~7-------------------------/5~~~5~~~3~~~3~/5-----|
A|-5-7-9-7-5-7-5/3~~~7-------------------------/5~~~5~~~3~~~3~/5-----|
E|--------------/1~~~5-5555555p| m--5-7-9-5-7-5--/3~~~3~~~1~~~1~/3-33333

E|---------------------------------------------------------------------|
B|----------------------------------------------------------------------|
G|----------------------------------------------------------------------|
D|-3-3-------7~~~~3~~~~7~~~~5~~~~7~~~~3~~~~5/3/5~~~7----7/3----3/7------|
A|-3-3-------7~~~~3~~~~7~~~~5~~~~7~~~~3~~~~5/3/5~~~7----7/3----3/7------|
E|-1-1-p| m----5~~~~1~~~~5~~~~3~~~~5~~~~1~~~~3/1/3~~~5-5555/1-1111/5-5555-

E|-------------------------------------------------------------------|
B|-------------------------------------------------------------------|
G|-------------------------------------------------------------------|
D|-3-----3-------7~~~3~~~7~~~5~~~7~~~3~~~5/3/5--7----7----7-7-7------|
A|-3-----3-------7~~~3~~~7~~~5~~~7~~~3~~~5/3/5--7----7----7-7-7------|
E|-1-11111-------5~~~1~~~5~~~3~~~5~~~1~~~3/1/3--55555555555-5-5------|

E|---------------------------------------------------------------------|
B|---------------------------------------------------------------------|
G|---------------------------------------------------------------------|
D|-5-------5-5-5-----/7------7-7-7-------5-------5-5-5------7-7-7------|
A|-5-------5-5-5-----/7------7-7-7-------5-------5-5-5------7-7-7------|
E|-3-33333-3-3-3-3333/5-5555-5-5-5-55555-3-33333-3-3-3-3333/5-5-5-5555-|

E|-----------------------------------------------------------------------|
B|-----------------------------------------------------------------------|
G|-----------------------------------------------------------------------|
D|-5------5-5-5--------7-------7-7-7/-3~~~~5~~~7/5~~~7~~~5~~~7~~~3~~~7~~~|
A|-5------5-5-5--------7-------7-7-7/-3~~~~5~~~7/5~~~7~~~5~~~7~~~3~~~7~~~|
E|-3------3-3-3--------5-------5-5-5/-1~~~~3~~~5/3~~~5~~~3~~~5~~~1~~~5~~~|

E|-----------------------------------------------------------------------|
B|-----------------------------------------------------------------------|
G|-----------------------------------------------------------------------|
D|-/3~~~7~~~3~~~5~~~/7~~~~~~~~~~~~------7~~~3~~~-/7~~~3~~~7------/3~~3~~5|
A|-/3~~~7~~~3~~~5~~~/7~~~~~~~~~~~~------7~~~3~~~-/7~~~3~~~7------/3~~3~~5|
E|-/1~~~5~~~1~~~3~~~/5~~~~~~~~~~~~\////5~~~1~~~-/5~~~1~~~5-55555/1~~1~~3|

E|--------------------------------------------------------------------|
B|--------------------------------------------------------------------|
G|--------------------------------------------------------------------|
D|-/7--7-------/3-------7-------5-------7--3------5------7-3-~~~5-~~~~-|
A|-/7--7-------/3-------7-------5-------7--3------5------7-3-~~~5-~~~~-|
E|-/5--5-555555/1-11111-5-55555-3-33333-5--1-1111-3-3333-5-1-~~~3-~~~~-|
Composição de Tierra Santa
9 exibições
    • ½ Tom
    • A
    • Bb
    • B
    • C
    • Db
    • D
    • Eb
    • E
    • F
    • F#
    • G
    • Ab
  • Adicionar à lista

    0 comentários

    Ver todos os comentários

    Conseguiu tocar?

    0 Tocaram 0 Ainda não

    Grave um vídeo tocando Una Juventud Perdida e nos envie!

    00:00 / 00:00
    Outros vídeos desta música
    Repetir Qualidade Automático
    Outros vídeos desta música
    00:00 / 00:00
    Automático

    Cifra Club Pro

    Aproveite o Cifra Club com benefícios exclusivos e sem anúncios
    Cifra Club Pro
    Aproveite o Cifra Club com benefícios exclusivos e sem anúncios
    OK