Cifra Club

Aprenda

Eu Vi Gnomos

Tihuana

Tab de baixo: Principal
A base da música é isso
G|---------------------------------------------|
D|---------------------------------------------|
A|----------------------5-5--5-5---------------|
E|--3-3--3-3--7-7--7-7-------------------------|


o cara faz umas viradas muito loucas, como por exemplo: (nao eh bem assim, mas quebra o galho!)
G|-----------------------------------------------|
D|------------------------------5-7-5------------|
A|----------------------5-5--5-5-----7-5-0-------|
E|--3-3--3-3--7-7--7-7---------------------------|



_______________________________________________________
Contribuição: Cristina(crisgs@msn.com)
10.398 exibições

0 comentários

Ver todos os comentários

Conseguiu tocar?

0 Tocaram 0 Ainda não

Grave um vídeo tocando Eu Vi Gnomos e nos envie!

00:00 / 00:00
outros vídeos desta música
repetir qualidade Automático
Outros vídeos desta música
00:00 / 00:00
Automático

Cifra Club Pro

Aproveite o Cifra Club com benefícios exclusivos e sem anúncios
Cifra Club Pro
Aproveite o Cifra Club com benefícios exclusivos e sem anúncios
OK