Cifra Club

Aprenda

Batata Frita, o Ladrão de Bicicleta

Tim Maia

Cifra: Principal (violão e guitarra)
tom: C
E|--------------------
B|--------------------
G|---5h7-5------------
D|--------5h7-5-------
A|-5\----------8-5-888
E|--------------------

E|------------------
B|------------------
G|-5h7-5------------
D|------5h7-5-------
A|-----------8-5--5-
E|------------------

E|--------------------
B|--------------------
G|---5h7-5------------
D|--------5h7-5-------
A|-5\----------8-5-888
E|--------------------

E|-----------------------------------------------
B|-----------------------------------------------
G|-5h7-5-----------------------------------------
D|------5h7-5------------------------------------
A|-----------8-5--3-----3---------3---3--------3-
E|------------------------6-3-1-3-------6-3-1-3--

 C                       F  G  C
O ladrão de bicicleta estava mal,
 F  G  C
estava mal!

 C                   F  G  C
O vizinho era careta dedurou,
 F  G  C
dedurou!

 C                   F  G  C
O juiz um boa praça cooperou,
 F  G  C
cooperou!

 C                      F  G  C
Desta vez Batata-frita se deu bem,
 F  G  C
se deu bem!

 C                      F  G  C
As pessoas boa praça estão em paz,
 F  G  C
estão em paz!
Composição de Tim Maia
Colaboração e revisão:
  • Caio
2.152 exibições
    • ½ Tom
    • A
    • Bb
    • B
    • C
    • Db
    • D
    • Eb
    • E
    • F
    • F#
    • G
    • Ab
  • Adicionar à lista

    0 comentários

    Ver todos os comentários

    Conseguiu tocar?

    0 Tocaram 0 Ainda não

    Grave um vídeo tocando Batata Frita, o Ladrão de Bicicleta e nos envie!

    00:00 / 00:00
    outros vídeos desta música
    repetir qualidade Automático
    Outros vídeos desta música
    00:00 / 00:00
    Automático

    Cifra Club Pro

    Aproveite o Cifra Club com benefícios exclusivos e sem anúncios
    Cifra Club Pro
    Aproveite o Cifra Club com benefícios exclusivos e sem anúncios
    OK