Do Leme Ao Pontal

Tim Maia

Composição de: Tim Maia
tom: C
E|------------------------|------------------------|
B|------------------------|------------------------|
G|------------5-7----55---|-----------5-7----9-7-5-|
D|-------5-7--------------|------5-7---------------|
A|------------------------|------------------------|
E|------------------------|------------------------|

[Intro] C Am7 Dm7 G7/4(9)

               C   Am7 Dm7 G7/4(9)
Do leme ao Pontal
               C   Am7 Dm7 G7/4(9)
Não há nada igual
               C Am7
Do leme ao Pontal
    Dm7        G7/4(9)
Do leme ao Pontal
               C  Am7     Dm7   G7/4(9)
Não há nada igual     no mundo
               C   Am7 Dm7 G7/4(9)
Do leme ao Pontal
               C   Am7 Dm7 G7/4(9)
Não há nada igual
               C Am7
Do leme ao Pontal
    Dm7        G7/4(9)
Do leme ao Pontal
               C  Am7  Dm7  G7/4(9)
Não há nada igual

Sem contar com Calabouço, Flamengo Botafogo

Urca Praia Vermelha
 G7/4(9)       C   Am7 Dm7 G7/4(9)
Do Leme ao Pontal
               C Am7    Dm7  G7/4(9)
Não há nada igual   no mundo
               C   Am7 Dm7 G7/4(9)
Do leme ao Pontal
               C   Am7 Dm7 G7/4(9)
Não há nada igual
               C Am7
Do leme ao Pontal
    Dm7        G7/4(9)
Do leme ao Pontal
               C  Am7   Dm7 G7/4(9)
Não há nada igual
               C Am7
Do leme ao Pontal
    Dm7        G7/4(9)
Do leme ao Pontal
               C  Am7   Dm7  G7/4(9)
Não há nada igual   no mundo
               C  Am7
Do leme ao Pontal
    Dm7        G7/4(9)
Do leme ao Pontal
               C  Am7  Dm7 G7/4(9)
Não há nada igual

Sem contar com Calabouço, Flamengo Botafogo

Urca Praia Vermelha

  C           Am7            Dm7            G7/4(9)
Tomo guaraná suco de cajú, goaiabada para sobremesa
  C           Am7            Dm7            G7/4(9)
Tomo guaraná suco de cajú, goaiabada para sobremesa
  C           Am7            Dm7            G7/4(9)
Tomo guaraná suco de cajú, goaiabada para sobremesa
  C           Am7            Dm7            G7/4(9)
Tomo guaraná suco de cajú, goaiabada para sobremesa

E|------------------------|------------------------|
B|------------------------|------------------------|
G|------------5-7----55---|-----------5-7----9-7-5-| (2x)
D|-------5-7--------------|------5-7---------------|
A|------------------------|------------------------|
E|------------------------|------------------------|

Página 1 / 1

Letras e título
Acordes e artista

resetar configurações
OK