Cifra Club

Aprenda

Primavera

Tim Maia

Cifra: Versão 2 (violão e guitarra)
Tom: A
    E             E7
e----7/9-5/7-4/5-2/4-4-2-------------------------------
b------------------------5-3-2-------------------------
g------------------------------4-2-4-------------------
d------------------------------------------------------
a------------------------------------------------------
e-0----------------------------------------------------

    A7+         C#m7                D7+              E7/4/9  
e---------------4-------------------10-10--9-10-9-10-7--
b---2-3-5-3-2-5-I-------------5-------------------------
g---------------I---------4-6---------------------------
d---------------I-----2-6-------------------------------
a---------------4---4-----------------------------------
e------------------------------------------------------- {2 Vezes}

  A7M              C#m7
  Quando o inverno chegar
  Bm7                    E7/9
  Eu quero estar junto a ti
  A7M             C#m7
  Pode o outono voltar
  Bm7                       E7/9
  Que eu quero estar junto a ti

  D7M    D7+     
  Porque (é primavera)
    A7M   D#m5b/7 
  Te amo (é primavera)
    A7M   Bm7  Bm/A    E  E4 E7/9 E4
 Te amo    meu amor

             A7M       D7+/9
  Trago esta rosa (para te dar)
             A7M      D7+/9
  Trago esta rosa (para te dar)
             A7M       D7+/9   E
  Trago esta rosa (para te dar)
        A7M
  Meu amor...

                       D7+/9 E       A7M
  Hoje o céu está tão lindo (vai chuva)
                       D7+/9 E       A7M
  Hoje o céu está tão lindo (vai chuva)

  Hoje o céu...
Composição de Cassiano / Silvio Rochael
Colaboração e revisão:
  • Givanilson Silva
92.201 exibições
    • ½ Tom
    • A
    • Bb
    • B
    • C
    • Db
    • D
    • Eb
    • E
    • F
    • F#
    • G
    • Ab
  • Adicionar à lista

    0 comentários

    Mostrar mais comentários

    Conseguiu tocar?

    0 Tocaram 0 Ainda não

    Grave um vídeo tocando Primavera e mande pra gente!

    00:00 / 00:00
    outros vídeos desta música
    repetir qualidade Automático
    Outros vídeos desta música
    00:00 / 00:00
    Automático

    Cifra Club Pro

    Aproveite o Cifra Club com benefícios exclusivos e sem anúncios
    7 dias grátis
    Cifra Club Pro
    Aproveite o Cifra Club com benefícios exclusivos e sem anúncios
    7 dias grátis
    OK