Cifra Club

Bichos Escrotos

Titãs

Tab de baixo: Principal
exibições 27.945
Linha Principal
---------------

G --------------------------------------------------------
D --------------------------------------------------------
A -5--0--3--0--5--0--3-0-3-0-5----------------------------
E --------------------------------------------------------

Essa linha é tocada quase a música inteira, nos trechos: 
"Bichos, saiam dos lixos, Baratas.... "


Refrão
------

G --------------------------------------------------------
D --------------------------------------------------------
A -5---5---0---3---5---5---0---3---5----------------------
E --------------------------------------------------------

Nos trechos cantados: "Bichos Escrotos, saiam dos esgotos...
Bichos Escrotos, venham me pegar...."

G --------------------------------------------------------
D --------------------------------------------------------
A -3---3-------0---3---3-------0---3---3------------------
E ---------3---------------3------------------------------

Essa é na segunda parte dos refrões "Meu lar.... meu jantar"...



Solo de baixo :
Pra ficar igual tem que usar um pedal... 

 T P T P T P T P T 
G:----7------5-----4-----5---- 
D:------------------------------- 
A:-5-----3------2-----3-----3- 
E:-------------------------------


     T  P  T   P                 P  T   P      P  P               T    P  P  P                              P  T  P  T P  T  P  T  P
G:----7------5h(7)p(5)h(7)p(5)-7------7-----5-7s(8)s(7)------7-----5h(7)p(5)h(7)p(5)-7-----7----5-----4-----6-
D:--------7--------------------------------------7---------------------------7-------------------------------------------------------
A:-5--------------------------------------5--------------------------5-------------------------------------5-----3----2-----4-----
E:-------------------------------------------------------------------------------------------------------------------------------------



G --------------------------------------------------------
D --------------------------------------------------------
A -5---5---5---5---0---3---0---3---0---3---0---5--5--5----
E --------------------------------------------------------

É só essa linha, tocada bem rápido...



_______________________________________________________
Contribuição: Alker(ratherguns@bol.com.br)
Composição: Arnaldo Antunes / Nando Reis / Sérgio BrittoColaboração e revisão:
  • Gabriel Leite

0 comentários

    mostrar mais comentários

    Conseguiu tocar?

    4tocaram0ainda não

    Grave um vídeo tocando Bichos Escrotos e mande pra gente!

    00:00 / 00:00
    outros vídeos desta música
    repetirqualidadeautomática
    Outro vídeos desta música
      00:00 / 00:00
      automática
      OK