Cifra Club

Aprenda

Is It For Me

Toad The Wet Sprocket

Cifra: Principal (violão e guitarra)
Já pensou em usar uma coleção de roupas do Cifra Club? Responda as perguntas abaixo e nos ajude nessa missão! →
tom: G

Date: Fri, 08 May 1998 11:33:34 PDT
From: avi winkler 
Subject: t/toad_the_wet_sprocket/*

IS IT FOR ME
AlBUM:FEAR
TRANSCRIBED BY:ME  AVI
CHORDS:
C/G:032013
G/D:320010
  F:133211
intro:

---3---3---3---3---3---3---3---3---3---3---3---3---3--|
-1---1---1---1---1---1---1---1---1---1---1---1---1----|
------------------------------------------------------|
------------------------------------------------------|
------------------------------------------------------|
------------------------------------------------------|
AND THROUGH THE DOOR WHAT DO I SEE?

    C/G                     F  G/D
-----3---3---3---3---3---3--1--0----------------------|
-----1---1---1---1---1---1--1--1-------------1-----1--|
-----0---0---0---0---0---0--2--2----4---4-------------|
-----2---2---2---2---2---2--3--3----------------------|
---3-3-3-3-3-3-3-3-3-3-3-3--3--2--0---0----2----2-----|
-----0---0---0---0---0---0--1--1----------------------|

------------------------------3---------|
------1------3--1-----1-----------------|
----------0--------0------0-------------|
----------------------------------------|
--0-------------------------------------|
----------------------------------------|


THE MAIN PART OF THE VERSES ARE CARRIED BY
ABASS RIFF THAT I DONT KNOW.

VERSE:
  C
BRADLEY SAYS ITS HAUNTED

THE HOUSE UPON THE HILL

AND IF WE MET AT 4AM
                      F  G/D
THEN WE WOULD KNOW FOR SURE


NOTE:I COULDN'T GET THE BRIDGE

BRIDGE:

WE CARRY THE LADDERS AND LEAN

THEM AGAINST IT AND

CLIMBED THEM AS WE LOOKED

VERSE:
  C
SOMEONE KIKED A LADDER
                F  G/D
BRADLEY TOOK A SPILL
  C
SAID HIS LEG WAS BROKEN

SO WE DRAGGED HIM
       F   G/D
DOWN THE HILL

CHORUS:
  C/G
AND THROUGH THE DOOR

WHAT DO I SEE(IT HAPPENED)
play the intro again here
SOMETHING IS HAPPENING

IS IT FOR ME?


SOLOS:IF YOU KNOW UM
PLEAS SEND UM

VERSE:
  C
MOM FOUND OUT THE WHOLE THING

MINE WAS FIRST TO CALL

BRADLEYS LEG HEALED BADLEY
                     F  G/D
AT LEAST HE STILL CAN WALK

BRIDGE:

WE LEAVE IN THE MORNING

AND NO ONE WILL HEAR US

AND MEAT IN THE CLEARING

AND I'LL BRING THE SANDWICHES

DAVID COME QUICKLEY YOUR

MISSING THE WHOLE THING
      E
KNOW OPEN YOUR BIG EYES
      F            F
AND TAKE IN THE SUNRISE

CHORUS:PLAY THE FIRST PART OF INTRO
(1-3)

AND THROUGH THE DOOR

WHAT DO I SEE(IT HAPPENED)

SOMETHING IS HAPPENING

IS IT FOR ME?

OUTRO:
C/G--F--G/D----INTRO(1-3)-FADE
Composição de Dean Dinning / Glen Phillips / Randy Guss / Toad the Wet Sprocket / Todd Nichols
173 exibições
    • ½ Tom
    • A
    • Bb
    • B
    • C
    • Db
    • D
    • Eb
    • E
    • F
    • F#
    • G
    • Ab
  • Adicionar à lista

    0 comentários

    Ver todos os comentários

    Conseguiu tocar?

    0 Tocaram 0 Ainda não

    Grave um vídeo tocando Is It For Me e nos envie!

    00:00 / 00:00
    Outros vídeos desta música
    Repetir Qualidade Automático
    Outros vídeos desta música
    00:00 / 00:00
    Automático

    Cifra Club Pro

    Aproveite o Cifra Club com benefícios exclusivos e sem anúncios
    Cifra Club Pro
    Aproveite o Cifra Club com benefícios exclusivos e sem anúncios
    OK