Cifra Club

Convenção de Paulo

Toinho de Aripibú

Cifra: Principal (violão e guitarra)
tom: C
Intro: Am  E  Am  A  Dm  Am  F  E  Am  E

Solo de guitarra:

E|12-10-8-7-5-5-----7-7-----9-9-----15-----13----------------------------|
B|-----------------------------------------------------------------------|
G|-----------------------------------------------------------------------|
D|-----------------------------------------------------------------------|
A|-----------------------------------------------------------------------|
E|-----------------------------------------------------------------------|

E|10---12-13-12-10-12-8---10-12-10-8-7-5---5-8-7-5-4-7-5-------8-7-5-----|
B|---------------------------------------6---------------------------6-5-|
G|-----------------------------------------------------------------------|
D|-----------------------------------------------------------------------|
A|-----------------------------------------------------------------------|
E|-----------------------------------------------------------------------|

  Am      E        Am
Andava no mundo perdido, sem paz
      Am       E       Am  A
Minha alma sem ter direção
  Dm               Am
Vivia de Deus esquecido e incapaz
   F       E         Am  A
De lá encontrar salvação
      Dm        G       C
Foi Jesus o meu guia leal
       E                   Am  A
Que morrendo na cruz me comprou
     Dm      G         C   G/B  Am
Eu andava no mundo a vagar perseguindo
Am7  F   E     Am  E
A Igreja do Senhor

  Am       E     Am
Andava sem misericórdia e sem luz
   Am      E        Am  A
Zombava do povo de Deus
    Dm                 Am
Sem ver que Aquele que morreu na cruz
  F      E       Am  A
Velava pelo povo seu
     Dm       G         C
Em Jesus encontrei salvação
    E                  Am  A
Sua Graça pousou sobre mim
      Dm        G       C
Converteu o meu vil coração
G/B  Am    Am7  F    E       Am  E
E salvou-me com seu amor sem fim

   Am      E       Am
Um dia, um caso me aconteceu
   Am        E         Am  A
Um grande clarão me cercou
     Dm                 Am
No caminho a Damasco os amigos meus
   F           E         Am  A
Também viram a luz do Senhor
      Dm         G         C
E eu, trêmulo, caí sobre o chão
    E                  Am  A
Uma voz lá do céu me falou
     Dm       G       C
Conheci que o meu coração
G/B  Am Am7   F       E       Am  E
Pela graça de Deus se transformou

  Am        E        Am
A voz gloriosa que ouvi me exortou
    Am         E       Am  A
Por meu tão cruel coração
  Dm                  Am
A vista, também no momento, cegou
 F            E         Am  A
Olhei, não vi mais o clarão
      Dm       G        C
E, guiado, a Damasco cheguei
     E                     Am  A
Lá fiquei sem comer, sem beber
      Dm        G        C
Só chorando, de noite sonhei
G/B      Am  Am7   F      E   Am  E
Vendo um crente e ali me apareceu

  Am           E        Am
Depois de três dias, um homem chegou
     Am       E         Am  A
Pois Deus ordenou-lhe assim
  Dm                 Am
Pediu pra entrar e comigo falou
  F        E          Am  A
Impondo as mãos sobre mim
    Dm        G       C
E rogando por mim a Jesus
    E                   Am  A/C#
O Espírito de Deus me selou
      Dm     G          C
Minha alma recebeu mais luz
G/B  Am   Am7      F     E    Am  E
Novamente, os meus olhos clareou

    Am        E           Am
Dou glórias a Deus porque já recebi
  Am      E        Am  A
A água da Fonte do bem
 Dm                  Am
Alegre eu estou, a Jesus conheci
     F           E         Am  A
Pois sei que mui breve Ele vem
       Dm           G         C
Oh que gozo, oh que paz divinal
      E                    Am  A
Que mudança, que transformação
      Dm           G        C  G/B   Am
Jesus Cristo assim quis revelar Seu Amor
 Am7    F    E   Am  A
Ao meu pobre coração

      Dm           G        C  G/B   Am
Jesus Cristo assim quis revelar Seu Amor
 Am7    F    E   Am
Ao meu pobre coração

Final: Am  E  Am  A  Dm  Am  F  E  Am E

Solo de guitarra:

E|12-10-8-7-5-5-----7-7-----9-9-----15-----13-------------------|
B|--------------------------------------------------------------|
G|--------------------------------------------------------------|
D|--------------------------------------------------------------|
A|--------------------------------------------------------------|
E|--------------------------------------------------------------|

E|10---12-13-12-10-12-8---10-12-10-8-7-5---5-8-7-5---0---4---5--|
B|---------------------------------------6----------------------|
G|--------------------------------------------------------------|
D|--------------------------------------------------------------|
A|--------------------------------------------------------------|
E|--------------------------------------------------------------|
Composição de Toinho de Aripibú
Colaboração e revisão:
  • Joémerson Maia
683 exibições
    • ½ Tom
    • A
    • Bb
    • B
    • C
    • Db
    • D
    • Eb
    • E
    • F
    • F#
    • G
    • Ab
  • Adicionar à lista

    0 comentários

    Ver todos os comentários

    Conseguiu tocar?

    0 Tocaram 0 Ainda não

    Grave um vídeo tocando Convenção de Paulo e nos envie!

    00:00 / 00:00
    Outros vídeos desta música
    Repetir Qualidade Automático
    Outros vídeos desta música
    00:00 / 00:00
    Automático

    Cifra Club Pro

    Aproveite o Cifra Club com benefícios exclusivos e sem anúncios
    Cifra Club Pro
    Aproveite o Cifra Club com benefícios exclusivos e sem anúncios
    OK