Cifra Club

Garota de Ipanema

Tom Jobim

Tab de baixo: Principal
Introdução ( Só voz e violão )

Olha que coisa mais linda...

Primeira parte 

Moça do corpo dourado,do sol de Ipanema...

Parte 01

G|--------------------------------------------|
D|--------------------------------------------|
A|-4-4------4-4---4--6-6-----6-6---5h6-6------|
E|-----4-4------4--------6-6-----6-------6-6--|

G|--------------------------------------------|
D|--------------------------------------------|
A|-----6---4-4-----4--4---4-------------------|
E|-4-4---4-----4-4------4---------------------|

Segunda parte

Ah, por que estou tão sozinho?

Parte 01

G|--------------------------------------------|
D|------------------------4h5-5---------------|
A|-5-5-----5-5---5------5-------5-------------|
E|-----5-5-----5----3-3-----------3-----------|

G|--------------------------------------------|
D|------------------------7h8-8---------------|
A|-5-5---4h5-5---5------8-------8-------------|
E|-----5-------5----6-6-----------6-----------|

Parte 02

G|--------------------------------------------|
D|-----------------------8h9-9----------------|
A|-6-6-----6-6---6-----9-------9--------------|
E|-----6-6-----6---7-7-----------7------------|

G|--------------------------------------------|
D|----------------8------------------6--------|
A|-8-8----------8----6-6----------6-----------|
E|-----8-7-6--6----------6-5-4--4-------------|

Parte 03

G|--------------------------------------------|
D|--------------------------------------------|
A|-4-4------4-4---4--6-6-----6-6---5h6-6------|
E|-----4-4------4--------6-6-----6-------6-5--|

G|--------------------------------------------|
D|--------------------------------------------|
A|-----6---4-4-----4--4---4-------------------|
E|-4-4---4-----4-4------4---------------------|

Terceira parte

Tall and tan and young and lovely...

Parte 01

G|--------------------------------------------|
D|--------------------------------------------|
A|-4-4------4-4---4--6-6-----6-6---5h6-6------|
E|-----4-4------4--------6-6-----6-------6-6--|

G|--------------------------------------------|
D|--------------------------------------------|
A|-----6---4-4-----4--4-----------------------|
E|-4-4---4-----4-4------4---------------------|

Parte 02

G|--------------------------------------------|
D|--------------------------------------------|
A|-4-4------4-4---4--6-6-----6-6---5h6-6------|
E|-----4-4------4--------6-6-----6-------6-5--|

G|--------------------------------------------|
D|------------8-6-8---------------------------|
A|-----6---4--------4-4---4-------------------|
E|-4-4---4--------------4---------------------|

Quarta parte

Oh, but I watch her so sadly,how can...

Parte 01

G|--------------------------------------------|
D|------------------------4h5-5---------------|
A|-5-5-----5-5---5------5-------3-4-----------|
E|-----5-5-----5----3-3-----------------------|

G|--------------------------------------------|
D|------------------------7h8-8---------------|
A|-5-5---4h5-5---5------8-------8-------------|
E|-----5-------5----6-6-----------6-----------|

Parte 02

G|--------------------------------------------|
D|-----------------------8h9-9----------------|
A|-6-6-----6-6---6-----9-------9--------------|
E|-----6-6-----6---7-7-----------7------------|

G|--------------------------------------------|
D|----------------8------------------6--------|
A|-8-8----------8----6-6----------6-----------|
E|-----8-7-6--6----------6-5-4--4-------------|
Parte 03

G|--------------------------------------------|
D|--------------------------------------------|
A|-4-4------4-4---4--6-6-----6-6---5h6-6------|
E|-----4-4------4--------6-6-----6-------6-5--|

G|--------------------------------------------|
D|--------------------------------------------|
A|-----6---4-4-----4--4---- ------------------|
E|-4-4---4-----4-4------4---------------------|

Solo de Sax

Parte 01

G|--------------------------------------------|
D|------------------------------------3-4-8-6-|
A|-4-4---3h4-4---4--6-6---5h6-6-----6---------|
E|-----4-------4--------6-------6-6-----------|

G|--------------------------------------------|
D|-------------------8-6---6------------------|
A|-6---6-4-4-----4-4-----8--------------------|
E|---4-------4-4------------------------------|

Parte 02

G|--------------------------------------------|
D|--------------------------------------------|
A|-4-4---3h4-4---4--6-6---5h6-6-----6---------|
E|-----4-------4--------6-------6-6---6-------|

G|--------------------------------------------|
D|-------------6------------------------------|
A|-----------6---4-4-----4-4---4--------------|
E|-2-3-6-4-4---------4-4-----4----------------|

Parte 03

G|--------------------------------------------|
D|-----------------------4h5------------------|
A|-5-5---4h5-5-------4h5-----5---3-4----------|
E|-----5-------5-4-3-----------3--------------|

G|--------------------------------------------|
D|---------------5-------7h8-------8----------|
A|-5-5---4h5-7-8-------8-----8---8------------|
E|-----5-----------6-6---------6--------------|

Parte 04

G|--------------------------------------------|
D|---------------8-------8h9-9----------------|
A|-6-6---5h6-8-9-------9-------9--------------|
E|-----6-----------7-7-----------7------------|

G|--------------------------------------------|
D|----------------8-----------6h7-------------|
A|-8-8----------8---6-6---6-5-----5-----------|
E|-----8-7-6--6---------6---------------------|

Parte 05

G|--------------------------------------------|
D|------------------------------------3-4-8-6-|
A|-4-4---3h4-4---4--6-6---5h6-6-----6---------|
E|-----4-------4--------6-------6-6-----------|

G|--------------------------------------------|
D|-------------------8-6---6------------------|
A|-6---6-4-4-----4-4-----8--------------------|
E|---4-------4-4------------------------------|

Solo Piano

Parte 01

G|--------------------------------------------|
D|--------------------------------------------|
A|-4-4------4-4---4--6-6-----6-6---5h6-6------|
E|-----4-4------4--------6-6-----6-------6-6--|

G|--------------------------------------------|
D|--------------------------------------------|
A|-----6---4-4-----4--4---4-------------------|
E|-4-4---4-----4-4------4---------------------|

Parte 02

G|--------------------------------------------|
D|--------------------------------------------|
A|-4-4------4-4---4--6-6-----6-6---5h6-6------|
E|-----4-4------4--------6-6-----6-------6-5--|

G|--------------------------------------------|
D|-------6----------------6-8-----------------|
A|-----6---4-4---3h4--4-8---------------------|
E|-4-4---------4------------------------------|

Quinta parte ( Final )

Oh, but I watch her so sadly,how can I tell... 

Ah, por que estou tão sozinho?

Parte 01

G|--------------------------------------------|
D|------------------------4h5-5---------------|
A|-5-5-----5-5---5------5-------5-------------|
E|-----5-5-----5----3-3-----------3-----------|

G|--------------------------------------------|
D|------------------------7h8-8---------------|
A|-5-5---4h5-5---5------8-------8-------------|
E|-----5-------5----6-6-----------6-----------|

Parte 02

G|--------------------------------------------|
D|-----------------------8h9-9----------------|
A|-6-6-----6-6---6-----9-------9--------------|
E|-----6-6-----6---7-7-----------7------------|

G|--------------------------------------------|
D|----------------8------------------6--------|
A|-8-8----------8----6-6----------6-----------|
E|-----8-7-6--6----------6-5-4--4-------------|

Parte 03

G|--------------------------------------------|
D|--------------------------------------------|
A|-4-4------4-4---4--6-6-----6-6---5h6-6------|
E|-----4-4------4--------6-6-----6-------6-5--|

G|--------------------------------------------|
D|--------------------------------------------|
A|-----6---4-4---4--5-5-5---5-4-4---5-5-5---5-|
E|-4-4---4-----4----------5-------4-------5---|

Parte 04 ( tocar 2x )

G|--------------------------------------------|
D|--------------------------------------------|
A|-4-4---4--5-5---5--4-4---4--5-5---5---------|
E|-----4--------5--------4--------5-----------|

Parte 05 

G|--------------------------------------------|
D|--------------------------------------------|
A|-4------------------------------------------|
E|--------------------------------------------|
00:00 / 00:00
Outros vídeos desta música
Repetir
Outros vídeos desta música
Composição de Antonio Carlos Jobim / Viní­cius De Moraes
Colaboração e revisão:
  • Ricardo Reis
7.200 exibições

0 comentários

Ver todos os comentários

Entre para oCifra Club PRO

Tenha acesso a benefícios exclusivos no App e no Site

  • Chega de anúncios

  • Prioridade de compra em lançamentos

  • Mais recursos no app do Afinador

  • Atendimento Prioritário

  • Descontos nos produtos Cifra Club

  • Ajude a produzir mais conteúdo

00:00 / 00:00
Capítulos
  • Tocando a música
  • Dicas Iniciais / Equipamentos
  • Exercício 1 - Parte 1 de 4
  • Exercício 1 - Parte 2 de 4
  • Exercício 1 - Parte 3 de 4
  • Exercício 1 - Parte 4 de 4
  • Exercício 2 - Parte 1 de 2
  • Exercício 2 - Parte 2 de 2
  • Primeira Parte
  • Segunda Parte - Parte 1 de 3
  • Segunda Parte - Parte 2 de 3
  • Segunda Parte - Parte 3 de 3
  • Terceira Parte - Parte 1 de 2
  • Terceira Parte - Parte 2 de 2
  • Quarta Parte - Parte 1 de 3
  • Quarta Parte - Parte 2 de 3
  • Quarta Parte - Parte 3 de 3
  • Solo Saxofone - Parte 1 de 5
  • Solo Saxofone - Parte 2 de 5
  • Solo Saxofone - Parte 3 de 5
  • Solo Saxofone - Parte 4 de 5
  • Solo Saxofone - Parte 5 de 5
  • Solo Piano - Parte 1 de 2
  • Solo Piano - Parte 2 de 2
  • Quinta Parte - Parte 1 de 5
  • Quinta Parte - Parte 2 de 5
  • Quinta Parte - Parte 3 de 5
  • Quinta Parte - Parte 4 de 5
  • Quinta Parte - Parte 5 de 5
  • Encerramento
  • Ficha Técnica / Erros de Gravação

Cifra Club Pro

Aproveite o Cifra Club com benefícios exclusivos e sem anúncios
Cifra Club Pro
Aproveite o Cifra Club com benefícios exclusivos e sem anúncios
OK