Dodó e Zezé

Tom Zé

Composição de: Tom Zé / Odair Cabeça de Poeta
tom: C
    C/G
E|-----0-----0-----0-----0-----------------|
B|-----1-----1-----1-----1-----------------|
G|-----0-----0-----0-----0-----------------|
D|-----------------------------------------|
A|--3-----------3--------------------------|
E|--------3-----------3--------------------|

    G/D
E|-----3-----3-----3-----3-----------------|
B|-----0-----0-----0-----0-----------------|
G|-----0-----0-----0-----0-----------------|
D|-----------------------------------------|
A|--2-----------2--------------------------|
E|--------3-----------3--------------------|


C/G                                               G/D
E por que é que a gente tem que ser marginal ou cidadão?
Diga, Zezé
                                  C/G
É pra ter a ilusão de que pode escolher, viu, Dodó?

E por que é que a gente tem que ter um medo danado
             G/D
De tudo na vida? Diga, Zez
                                                 C/G
É pra aprender que o medo é o nosso melhor conselheiro
Viu, Dodó?

Sorrisos, creme dental e tudo e por que é que a felicidade
                G/D
Anda me bombardeando? Diga, Zezé

Anda o que, Dodó?
Anda me bombardeando.
                                                            C/G
  Ah! É pra provar que ninguém mais tem o direito de ser infeliz
Viu, Dodó?
E por que é que um Zé qualquer de vez em quando tem que dar 
                     G/D
Certos sopapos na mulher? Diga, Zezé
                                                              C/G
Ah! Isso é pra no outro dia de manhã cedinho vender muito jornal
Viu, Dodó?
                                               G/D
E por que é, e por que é, e por que é, e por que é? Diga, Zezé
                                                          
C/G
  É porque porque, porque porque, porque porque, porque porque
Viu, Dodó?

É porque á e porcá 
                G/D
É porque é e porqué 
É porque i e porquí
                C/G 
É porque ó e porcó
Página 1 / 1

Letras e título
Acordes e artista

resetar configurações
OK