Cifra Club

Aprenda

Aleluia

Ton Carfi

Tab de baixo: Principal
E --5-77---3-55---2-44---0-33--3-555-77--
A ---------------------------------------
D ---------------------------------------    7X antes do Aleluia... 
G ---------------------------------------

A Parte do Aleluia em minha opinião, 
ao invés de fazer muitas viradas...
eu continuo repetindo 5-77 3-55.... 
até chegar; "Em todo tempo eu o louvarei.

Fica a seu critério...

"Em todo tempo eu o louvarei..."            
E --------0-2-2-------0-2-2-------0-2-2--
A --2-4-4-------2-4-4-------2-4-4--------
D ---------------------------------------
G ---------------------------------------

"...Pois sei que estais comigo meu senhor."

E|-2-3~~3~~5-7-7----------
A|------------------------
D|------------------------
G|------------------------

"...Saltarei muralhas..."

E --5-77---3-55---2-44---0-33--3-555-77--
A ---------------------------------------
D ---------------------------------------    7X antes do Aleluia... 
G ---------------------------------------

Compositor não encontrado.
Colaboração e revisão:
  • Pedro Moura
2.260 exibições

0 comentários

Ver todos os comentários
00:00 / 00:00
Outros vídeos desta música
Repetir Qualidade Automático
Outros vídeos desta música
00:00 / 00:00
Automático

Cifra Club Pro

Aproveite o Cifra Club com benefícios exclusivos e sem anúncios
Cifra Club Pro
Aproveite o Cifra Club com benefícios exclusivos e sem anúncios
OK