Cifra Club

Dar a Volta Por Cima

Ministério Apascentar de Louvor (Toque No Altar)

Cifra: Principal (violão e guitarra)
tom: C
(intro)

Riff 1
      C5                                          F5
E|-------------------------------------------------------------------------------
B|-------------------------------------------------------------------------------
G|xx-5-------7---4b-------------------------------3-------5--2b------------------
D|xx-5-----5-----------5----5--7---5~-------------3----3-----------3----3-5~-----
A|xx-3---3----------------7-------------5----3~---1--1---------------5------3--1-
E|xx-----------------------------------------------------------------------------
  
 C5                                             F5
E|-------------------------------------------------------------------------------
B|-------------------------------------------------------------------------------
G|5----------7---4b-------------------------------3-------5--2b------------------
D|5--------5-----------5----5--7---5~-------------3----3-----------3----3-5~-----
A|3------3----------------7-------------5----3~---1--1---------------5------3--1-
E|-------------------------------------------------------------------------------

 C5     A5     G5   F5
Aprendi a superar, eu vou
 C5     A5     G5   F5
Desistir e me entregar não vou
 C5     A5     G5   F5
Sou corajoso pra gritar: Senhor!
C5     A5     G5   F5
Filho de Davi estou aqui
  Dm5    C5     F5
Não adianta me parar
    Dm5    C5
O tempo é agora
 F5       G5
Eu decido lutar

 C5                     G5
Eu vou dar a volta por cima
A5                      F5
Eu vou festejar a conquista
 C5                     G5
E vou ao som do meu milagre
Dm5   C5  F5
Hoje dançar

F5 E5 D#5 D5

Solo

Parte 1

E|---------------------------------------------------
B|------11----11h12h13-------------------------------
G|-7/12----12-----------10--8b-----------------8b----
D|------------------------------10----8--10~~--------
A|---------------------------------10----------------
E|---------------------------------------------------

E|-11-11-8----8----------------------------------------------
B|---------11---11--11--8---8--8-----------------------------
G|------------------------10-----10--8--8-----------10b12~---
D|----------------------------------------10--8--10----------
A|-----------------------------------------------------------
E|-----------------------------------------------------------

Parte 2

E|-13b15-b15-b15-13b15r13--11-13b15r13~----10b11~-----------------------------------8b-------------------------
B|------------------------------------13-11-----13b15-r13~~~--11----11--------------8b-------------------------
G|---------------------------------------------------------------12---12--11-10-8---8b-------------------------
D|--------------------------------------------------------------------------------------10-------8--10b~-----
A|-----------------------------------------------------------------------------------------8--9----------------
E|-------------------------------------------------------------------------------------------------------------

Parte 3

E|------------------------------------------------------
B|-11b13---11-10-9-8-----------------9b11---------------
G|-------------------10-9-8-----------------------------
D|--------------------------10--------------------------
A|-----------------------------------------11b13-11b13~-
E|-----------------------------------------8-----8------

Refrão 2x

Riff 1
00:00 / 00:00
Outros vídeos desta música
Repetir
Outros vídeos desta música
Compositor não encontrado.
Colaboração e revisão:
  • Gabriel
  • Camila Correia
29.912 exibições
    • ½ Tom
    • A
    • Bb
    • B
    • C
    • Db
    • D
    • Eb
    • E
    • F
    • F#
    • G
    • Ab
  • Adicionar à lista

    0 comentários

    Ver todos os comentários

    Entre para oCifra Club PRO

    Tenha acesso a benefícios exclusivos no App e no Site

    • Chega de anúncios

    • Prioridade de compra em lançamentos

    • Mais recursos no app do Afinador

    • Atendimento Prioritário

    • Descontos nos produtos Cifra Club

    • Ajude a produzir mais conteúdo

    00:00 / 00:00

    Cifra Club Pro

    Aproveite o Cifra Club com benefícios exclusivos e sem anúncios
    Cifra Club Pro
    Aproveite o Cifra Club com benefícios exclusivos e sem anúncios
    OK