Cifra Club

Não Tenho Outro Bem

Toque No Altar

Cifra: Principal
exibições 211.942
Tom: C
[Intro] C9  G/B  Bb  C  D
        C9  G/B  Bb  C  D

 G
Não importa o que sou
 Dm7/9
Nem o que tenho
 Am7             D
Diante do que Tu és

  G
Trago minhas vestes
 Dm7/9
Minha coroa
Am7          D
E ofereço a Ti

         Am7           G/B
Como os vinte e quatro anciãos
        C9          D
E a entrada em Jerusalém
      Am7            G/B
A mulher na casa de Simão
       C9             D
Eu me lanço aos teus pés

                 G
Não tenho outro bem além de Ti
                 Am7
Não tenho outro bem além de Ti
                 C9
Não tenho outro bem além de Ti
    D
Senhor
                 G
Não tenho outro bem além de Ti
                 Am7
Não tenho outro bem além de Ti
                 C9
Não tenho outro bem além de Ti
    D
Senhor

[Solo] G  Am7  C9  D


E|------------------10-8-7-----------------------------|
B|------8---8-10-12---------10-8-12-10-10-8------------|
G|--7-9---9--------------------------------------------|
D|-----------------------------------------------------|
A|-----------------------------------------------------|
E|-----------------------------------------------------|


E|-8-7-------------------------------------------------|
B|-----10-10-8-----------8-10--12-10-8-10--------------|
G|-------------9-----7-9-------------------------------|
D|-----------------------------------------------------|
A|-----------------------------------------------------|
E|-----------------------------------------------------|


 G
Não importa o que sou
 Dm7/9
Nem o que tenho
 Am7             D
Diante do que Tu és

  G
Trago minhas vestes
 Dm7/9
Minha coroa
Am7          D
E ofereço a Ti

         Am7           G/B
Como os vinte e quatro anciãos
        C9          D
E a entrada em Jerusalém
      Am7            G/B
A mulher na casa de Simão
       C9             D
Eu me lanço aos teus pés

                 G
Não tenho outro bem além de Ti
                 Am7
Não tenho outro bem além de Ti
                 C9
Não tenho outro bem além de Ti
    D
Senhor
                 G
Não tenho outro bem além de Ti
                 Am7
Não tenho outro bem além de Ti
                 C9
Não tenho outro bem além de Ti
    D
Senhor

      G
Eu Te Amo
        Am7
Eu Te Quero
    G/B C9          D
Eu Te Adoro meu Senhor
      G
Eu Te Amo
        Am7
Eu Te Quero
    G/B C9          D
Eu Te Adoro meu Senhor

[Solo] G  Am7  G/B  C9  D
       G  Am7  G/B  C9  D


E|---------------------------------------------------------------------|
B|----15-15-------------15-15------------15-15-17-17---17-15-13-15-----|
G|-12-------12-12----12-------12-12---12-------------------------------|
D|---------------------------------------------------------------------|
A|---------------------------------------------------------------------|
E|---------------------------------------------------------------------|


E|----------------------------------------------------10-15-19-17-15-19-19-20-19-19-17-15-17------|
B|----15-15-------------15-15------------15-15-17-17----------------------------------------------|
G|-12-------12-12----12-------12-12---12----------------------------------------------------------|
D|------------------------------------------------------------------------------------------------|
A|------------------------------------------------------------------------------------------------|
E|------------------------------------------------------------------------------------------------|


         Am7           G/B
Como os vinte e quatro anciãos
        C9          D
E a entrada em Jerusalém
      Am7            G/B
A mulher na casa de Simão
       C9             D
Eu me lanço aos teus pés

                 G
Não tenho outro bem além de Ti
                 Am7
Não tenho outro bem além de Ti
                 C9
Não tenho outro bem além de Ti
    D
Senhor
                 G
Não tenho outro bem além de Ti
                 Am7
Não tenho outro bem além de Ti
                 C9
Não tenho outro bem além de Ti
    D
Senhor

      G
Eu Te Amo
        Am7
Eu Te Quero
    G/B C9          D
Eu Te Adoro meu Senhor
      G
Eu Te Amo
        Am7
Eu Te Quero
    G/B C9          D
Eu Te Adoro meu Senhor

                 G
Não tenho outro bem além de Ti
                 Am7
Não tenho outro bem além de Ti
                 C9
Não tenho outro bem além de Ti
    D
Senhor

0 comentários

    mostrar mais comentários

    Conseguiu tocar?

    15tocaram0ainda não

    Grave um vídeo tocando Não Tenho Outro Bem e mande pra gente!

    00:00 / 00:00
    outros vídeos desta música
    repetirqualidadeautomática
    Outro vídeos desta música
      00:00 / 00:00
      automática
      OK