Enviar cifraEntrar

Não Tenho Outro Bem

Toque No Altar

Cifra: Principal
exibições 195.230
Tom: D
Intro: C9  G/B  Bb  C  D (2X)

G
Não importa o que sou
Dm7/9
Nem o que tenho
Am7                 D
Diante do que Tu és

G
Trago minhas vestes
Dm7/9
Minha coroa
Am7              D
E   ofereço a   Ti

       Am7             G/B
Como os vinte e quatro anciãos
       C9            D
E a entrada em Jerusalem
       Am7          G/B
A mulher na casa de Simão
      C9            D
Eu me lanço aos teus pés

                 G
Não tenho outro bem além de Ti
                Am7
Não tenho outro bem além de Ti
                 C9
Não tenho outro bem além de Ti
     D
Senhor

Solo:

E|-------------------------|------------------------------------------------------|
B|--------6--8-8^-----10^--|---14^-14--12-----------------------------------------|
G|-7--9--------------------|----------------14-14--12--14-14--12-16-14-12-14-12---|
D|-------------------------|------------------------------------------------------|
A|-------------------------|------------------------------------------------------|
E|-------------------------|------------------------------------------------------|


E|--------------------------------------------------------------------------------|
B|-------------12--14-14h16p14--14------------------------------------------------|
G|---12--14-----------------------------------------------------------------------|
D|--------------------------------------------------------------------------------|
A|--------------------------------------------------------------------------------|
E|--------------------------------------------------------------------------------|


       G
Eu Te Amo
      Am7
Eu Te Quero
  G/B     C9        D
Eu Te Adoro  meu  Senhor

Solo:

E|--------9/10-10---------------9/10-10----------------9/10-10--12-12-11^-11p10h11p10---|
B|---7/8-----------8-8------7/8-----------8-8------7/8----------------------------------|
G|--------------------------------------------------------------------------------------|
D|--------------------------------------------------------------------------------------|
A|--------------------------------------------------------------------------------------|
E|--------------------------------------------------------------------------------------|


E|-----9/10-10-------------9/10-10----------9/10-10-12^12/15-15/17-19^-19^--20-19^19^---|
B|-7/8---------8--8----7/8--------8-8---7/8------------------------------------------19-|
G|--------------------------------------------------------------------------------------|
D|--------------------------------------------------------------------------------------|
A|--------------------------------------------------------------------------------------|
E|--------------------------------------------------------------------------------------|
  • 1
  • 2
  • 3
  • 4
  • 5
  • 6
  • 7
  • 8
  • 9
  • 10
  • 11
  • 12
    Acordes para:

      0 comentários

        mostrar mais comentários

        Conseguiu tocar?

        15tocaram0ainda não

        Grave um vídeo tocando Não Tenho Outro Bem e mande pra gente!

        00:00 / 00:00
        outros vídeos desta música
        repetirqualidadeautomática
        • automática
        Outro vídeos desta música
          00:00 / 00:00
          automática
          • automática
          fecharplay/pause subir/descer velocidade
            acordes
            fechar
            OK
            Feedback