Cifra Club

Não Tenho Outro Bem

Ministério Apascentar de Louvor (Toque No Altar)

Cifra: Principal (violão e guitarra)
tom: G
[Intro] C9  G/B  Bb  C  D

 G
Não importa o que sou
 Dm7/9
Nem o que tenho
 Am7             D
Diante do que Tu és

  G
Trago minhas vestes
 Dm7/9
Minha coroa
Am7          D
E ofereço a Ti

         Am7           G/B
Como os vinte e quatro anciãos
        C9          D
E a entrada em Jerusalém
      Am7            G/B
A mulher na casa de Simão
       C9             D
Eu me lanço aos teus pés

                 G
Não tenho outro bem além de Ti
                 Am7
Não tenho outro bem além de Ti
                 C9
Não tenho outro bem além de Ti
    D
Senhor
                 G
Não tenho outro bem além de Ti
                 Am7
Não tenho outro bem além de Ti
                 C9
Não tenho outro bem além de Ti
    D
Senhor

[Solo] G  Am7  C9  D

E|--------------------------------------------------------|
B|-------------------------15-----------------------------|
G|--------12----12-14b16------14b16r14-12-14b16-14~--12---|
D|--12h14-12-14-12----------------------------------------|
A|--------------------------------------------------------|
E|--------------------------------------------------------|

E|------------------------------------------------------------|
B|-12h13p12---------------------------------------------------|
G|----------14-12h14-12----------------12-14--14b16r14h12p14~-|
D|----------------------12h14~---12h14------------------------|
A|------------------------------------------------------------|
E|------------------------------------------------------------|

 G
Não importa o que sou
 Dm7/9
Nem o que tenho
 Am7             D
Diante do que Tu és

  G
Trago minhas vestes
 Dm7/9
Minha coroa
Am7          D
E ofereço a Ti

         Am7           G/B
Como os vinte e quatro anciãos
        C9          D
E a entrada em Jerusalém
      Am7            G/B
A mulher na casa de Simão
       C9             D
Eu me lanço aos teus pés

                 G
Não tenho outro bem além de Ti
                 Am7
Não tenho outro bem além de Ti
                 C9
Não tenho outro bem além de Ti
    D
Senhor
                 G
Não tenho outro bem além de Ti
                 Am7
Não tenho outro bem além de Ti
                 C9
Não tenho outro bem além de Ti
    D
Senhor

      G
Eu Te Amo
        Am7
Eu Te Quero
    G/B C9          D
Eu Te Adoro meu Senhor
      G
Eu Te Amo
        Am7
Eu Te Quero
    G/B C9          D
Eu Te Adoro meu Senhor

[Solo] G  Am7  G/B  C9  D
       G  Am7  G/B  C9  D

E|---------------------------------------------------------------------|
B|----15-15-------------15-15------------15-15-17-17---17-15-13-15-----|
G|-12-------12-12----12-------12-12---12-------------------------------|
D|---------------------------------------------------------------------|
A|---------------------------------------------------------------------|
E|---------------------------------------------------------------------|

E|----------------------------------------------------10-15-19-17-15-19-19-20-19-19-17-15-17------|
B|----15-15-------------15-15------------15-15-17-17----------------------------------------------|
G|-12-------12-12----12-------12-12---12----------------------------------------------------------|
D|------------------------------------------------------------------------------------------------|
A|------------------------------------------------------------------------------------------------|
E|------------------------------------------------------------------------------------------------|

         Am7           G/B
Como os vinte e quatro anciãos
        C9          D
E a entrada em Jerusalém
      Am7            G/B
A mulher na casa de Simão
       C9             D
Eu me lanço aos teus pés

                 G
Não tenho outro bem além de Ti
                 Am7
Não tenho outro bem além de Ti
                 C9
Não tenho outro bem além de Ti
    D
Senhor
                 G
Não tenho outro bem além de Ti
                 Am7
Não tenho outro bem além de Ti
                 C9
Não tenho outro bem além de Ti
    D
Senhor

      G
Eu Te Amo
        Am7
Eu Te Quero
    G/B C9          D
Eu Te Adoro meu Senhor
      G
Eu Te Amo
        Am7
Eu Te Quero
    G/B C9          D
Eu Te Adoro meu Senhor

                 G
Não tenho outro bem além de Ti
                 Am7
Não tenho outro bem além de Ti
                 C9
Não tenho outro bem além de Ti
    D
Senhor
00:00 / 00:00
Outros vídeos desta música
Repetir
Outros vídeos desta música
Composição de Davi Sacer / David Cerqueira / Luiz Arcanjo
274.881 exibições
    • ½ Tom
    • A
    • Bb
    • B
    • C
    • Db
    • D
    • Eb
    • E
    • F
    • F#
    • G
    • Ab
  • Adicionar à lista

    0 comentários

    Ver todos os comentários

    Entre para oCifra Club PRO

    Tenha acesso a benefícios exclusivos no App e no Site

    • Chega de anúncios

    • Prioridade de compra em lançamentos

    • Mais recursos no app do Afinador

    • Atendimento Prioritário

    • Descontos nos produtos Cifra Club

    • Ajude a produzir mais conteúdo

    00:00 / 00:00

    Cifra Club Pro

    Aproveite o Cifra Club com benefícios exclusivos e sem anúncios
    Cifra Club Pro
    Aproveite o Cifra Club com benefícios exclusivos e sem anúncios
    OK