Cifra Club

Aprenda

Nunca Desistiu de Mim

Ministério Apascentar de Louvor (Toque No Altar)

Cifra: Principal (violão e guitarra)
tom: A
Intro: A E (2x)
                  
E|------------------------|---------------------------|
B|--------4--4--4h5p4-----|--------4--4--4h5p4--------|
G|--4--6---------------6--|--4--6---------------6--4--|
D|------------------------|---------------------------|
A|------------------------|---------------------------|
E|------------------------|---------------------------|

E|-------------------|-----------------------|
B|-------------------|---------------5-------|
G|--7--7--6--4--4/5--|--4--6--7--7------4----|
D|-------------------|---------------------6-|
A|-------------------|-----------------------|
E|-------------------|-----------------------| 2x

         E
Se o meu povo
    B9/Eb     E7/D A9/C#  B
Que chama Meu no   me
A
Se humilhar
  F#m
E me clamar
B           A9/B
Eu ouvirei, diz o Senhor
  E                 B9/Eb
Estrelas cantam Teu nome
    E7/D      A9/C#  B
Mas quer me ouvir
    A         F#m
Sou filho guardado
   B
Em Tuas mãos

B          F#m
Nunca desistiu de mim
B               F#m
Me gerou em Seu coração
B         F#m
E se entregou por mim
      A      E/G# F#m
Só porque me ama  tanto

            E
Posso descansar

E7/D C#m7 D7/C Bm7 C#m7

E|------------------------------------------|
B|------------------------------------------|
G|--7--9--9/11--12\7--5--7--7/9--10\5--5/7--|
D|------------------------------------------|
A|------------------------------------------|
E|------------------------------------------|

         E
Se o meu povo
    B9/Eb     E7/D A9/C#  B
Que chama Meu no   me
A
Se humilhar
  F#m
E me clamar
B           A9/B
Eu ouvirei, diz o Senhor
  E                 B9/Eb
Estrelas cantam Teu nome
    E7/D      A9/C#  B
Mas quer me ouvir
    A         F#m
Sou filho guardado
   B
Em Tuas mãos

B          F#m
Nunca desistiu de mim
B               F#m
Me gerou em Seu coração
B         F#m
E se entregou por mim
      A      E/G# F#m
Só porque me ama  tanto

            E
Posso descansar
            C#m7
Vai me levantar
Compositor não encontrado.
Colaboração e revisão:
19.557 exibições
    • ½ Tom
    • A
    • Bb
    • B
    • C
    • Db
    • D
    • Eb
    • E
    • F
    • F#
    • G
    • Ab
  • Adicionar à lista

    0 comentários

    Ver todos os comentários
    00:00 / 00:00
    Outros vídeos desta música
    Repetir Qualidade Automático
    Outros vídeos desta música
    00:00 / 00:00
    Automático

    Cifra Club Pro

    Aproveite o Cifra Club com benefícios exclusivos e sem anúncios
    Cifra Club Pro
    Aproveite o Cifra Club com benefícios exclusivos e sem anúncios
    OK