Cifra Club

Berimbau / Consolação

Toquinho e Vinícius

Cifra: Principal (violão e guitarra)
Tom: F
         

Atenção: Para tocar esta canção afine a 6ª corda (E) em D, para obter as notas mais 
graves presentes.
As tablaturas são feitas para esta afinação.

Riff 1:

    Dm7    G/D Dm7     G/D Dm7                G/D
e|-|-----1-1-3-------1-1-3------1-1-1-1-1-1-1-1-3-
B|-|-----1-1-3-------1-1-3------1-1-1-1-1-1-1-1-3-
G|-|-----2-2-4-------2-2-4------2-2-2-2-2-2-2-2-4-
D|-|----------------------------------------------
A|-|----------------------------------------------
D|-|-0~~~-------0~~~--------0~~~------------------ 

===================================================
Riff 2:

    Dm9/11
e|-|-----------0~----
B|-|---------3~------
G|-|-------0~----0-0-
D|-|-----0~------0-0-
A|-|---0~------------
D|-|-0~--------------

===================================================
Riff 3:

                      Dm            Am7     Dm
e|-|-----------------------------1~--0-0---0-2-
B|-|---------------------------3~--3-1-1---1-3-
G|-|-------------------------2~--------------2-
D|-|-------3---------------0~------------------
A|-|---3-5---5-3-0-------0~----------0---0-----
D|-|-5-------------3h5-0~--------------------0-

===================================================
Riff 4:

                            Bb5-  A7
e|-|-----5-8-5-------------------0-----0---
B|-|-6-8-------8-6---------5---3-----2---2-
G|-|---------------7-5-3-5-----------------
D|-|-------------------------1-----0-------
A|-|---------------------------------------
D|-|---------------------------------------

===================================================
Riff 5

    Dm7    Em/D Dm7    Em/D Dm7                         Dm/9
e|-|-----5-5-7-------5-5-7------5-5-5-5-5-5-5-5-5~~~-------------12~-
B|-|-----6-6-8-------6-6-8------6-6-6-6-6-6-6-6-6~~~----------10~----
G|-|-----7-7-9-------7-7-9------7-7-7-7-7-7-7-7-7~~~-------10~-------
D|-|-----------------------------------------------------------------
A|-|-----------------------------------------------------------------
D|-|-0~~~--------0~~~--------0~~~------------------------0-----------

===================================================
Intro: (Dm Am7)

Dm                         Am7
   Quem é homem de bem não trai
                        Dm
O amor que lhe quer seu bem
                            Am7
Quem diz muito que vai, não vai
                        Dm
Assim como não vai, não vem
                         Am7
Quem de dentro de si não sai
                       Dm
Vai morrer sem amar ninguém
                       Am7
O dinheiro de quem não dá
                         Dm
É o trabalho de quem não tem
                       Am7
Capoeira que é bom não cai
                         Riff 1
E se um dia ele cai, cai bem


Gm  C7         F7+   F7            Bb7
Capoeira me mandou dizer que já chegou
   A7         Riff 2
Chegou para lutar
Gm   C7           F7+     F7            Bb7
Berimbau me confirmou vai ter briga de amor
    A7        Dm (Riff 3)    
Tristeza, camará


Dm          Am7      Dm            Am7      Dm
   Se não tivesse o amor (Se não tivesse o amor)
         Am7        Dm            Am7        Dm 
Se não tivesse essa dor (Se não tivesse essa dor)
           Am7     Dm               Am7     Dm
E se não tivesse sofrer (E se não tivesse sofrer)
           Am7      Dm              Am7      Dm 
E se não tivesse chorar (E se não tivesse chorar)


Riff 3
Melhor era tudo se acabar (2x)


    Gm/F F5+/9/11   Dm  
Eu amei,             amei demais
           Gm                F             Bb7  A7 
o que eu sofri por causa de amor ninguém sofreu
      Gm/F F5+/9/11     Dm  
Eu chorei,             perdi a paz
Riff 4                                           
mas o que eu sei é que ninguém nunca teve mais,
            Riff 1
mais do que eu


Gm  C7         F7+   F7            Bb7
Capoeira me mandou dizer que já chegou
   A7         Riff 2
Chegou para lutar
Gm   C7           F7+     F7            Bb7
Berimbau me confirmou vai ter briga de amor
    A7        Riff 5    
Tristeza, camará

Ê Ê Camará

Ê Ê Camará Ê

=========================================================
Acordes:

    Dm Am7 Dm7 G/D  Gm  C7 F7+  F7 Bb7  A7 Dm9/11 Gm/F F5+/9/11 Eº  F  Bb5-
e|-|-1-|-0-|-1-|-3-|-3-|-3-|-5-|-5-|-1-|-0-|---0--|--3-|---3---|-3-|-1-|-0--|
B|-|-3-|-1-|-1-|-3-|-3-|-5-|-5-|-4-|-3-|-2-|---3--|--3-|---2---|-2-|-1-|-3--|
G|-|-2-|-0-|-2-|-4-|-3-|-3-|-5-|-5-|-1-|-0-|---0--|--3-|---3---|-3-|-2-|----|
D|-|-0-|-2-|-0-|---|-5-|-5-|-3-|-3-|-3-|-2-|---0--|--3-|---3---|-2-|-3-|----|
A|-|-0-|-0-|-0-|---|---|-3-|---|---|-1-|-0-|---0--|----|-------|---|---|-1--|
D|-|-0-|---|-0-|-0-|---|---|---|---|---|---|---0--|----|-------|---|---|----|

Acordes para o Riff 5:

   Dm7 Em/D Dm/9
e|-|-5--|-7-|-12-|
B|-|-6--|-8-|-10-|
G|-|-7--|-9-|-10-|
D|-|-0--|---|--0-|
A|-|-0--|---|--0-|
D|-|-0--|-0-|--0-|
exibições 31.008
Acordes para:
    Composição: Baden Powell / Vinícius de Moraes Colaboração e revisão:
    • Alex Pessoa

    0 comentários

    mostrar mais comentários

    Conseguiu tocar?

    1 tocaram 1 ainda não

    Grave um vídeo tocando Berimbau / Consolação e mande pra gente!

    00:00 / 00:00
    outros vídeos desta música
    repetir qualidade Automático
    Outros vídeos desta música
    00:00 / 00:00
    Automático
    OK