Cifra Club

Onde Anda Você

Toquinho e Vinícius

Cifra: Principal (violão e guitarra)
Tom: D (forma dos acordes no tom de C) Capotraste na 2ª casa
[Intro] Dm7(9)  G7(13)  Em7  Dm7  F9/A

                          Dm7(9)        G7(13)
E|--------5--8--5--------------------------------------------------------------|
B|--8--8-----------8/5-----5--------5--3--5-----5--3--5--5/8--5-3-0-----0------|
G|-------------------------5--------5-----------4-----------------------0------|
D|----------------------------3-----3-----------3-----------------------2------|
A|----------------------5--------5-----------------------------------3--3--3---|
E|-------------------------------------------3---------------------------------|

                        Em7    Ebº  Dm7
E|---------------------0-----3---------2---------1--------------------0--------|
B|--1p0-------------------3----3-------1--1------1---------------0-----0----0--|
G|-------2p0--------------4------4-----2----2----2------2-0-2-----2-----2---0--|
D|------------2p0---------2----------1---------0---0-0-------------0-----0--2--|
A|-----------------3------3-------------------------------------------------3--|
E|-------------------------------------------------------------3---------------|

                                       F9/A
E|-------------------------------------------|
B|-----------------------------------6-6-----|
G|--5--2H5p2-------------------------6-6-----|
D|------------5--2-------------------5-5-----|
A|------------------5--3---------------------|
E|-----------------------------------5-------|

         F9/A)    Dm7(9)           G7(13)
E por falar em saudade onde anda você  
                C7M                    Em7
Onde andam seus olhos que a gente não vê  
     Ebdim      Dm7
Onde anda esse corpo  
               G7(13)          C7M  Em7
Que me deixou morto de tanto prazer  
       A7(#5)     D7(9)               G7(13)
E por falar em beleza onde anda a canção   
                 C7M                  Em7
Que se ouvia na noite dos bares de então  
        Ebdim   Dm7                   G7(13)
Onde a gente ficava,onde a gente se amava  
          Gm7     C7(13)
Em total solidão  
         F#m7(b5)      Fm7
Hoje eu saio da noite vazia  
       Em7                A7
Numa boemia sem razão de ser  
               D7(9)                G7(13)
Na rotina dos bares,que apesar dos pesares  
           E7(13)  E7(b13)
Me trazem você  
A7/4/9          F#m7(b5)            Fm7
E por falar em paixão, em razão de viver  
              Em7         A7
Você bem que podia me aparecer  
                 D7(9)                G7(13)
Nesses mesmos lugares, na noite, nos bares  
           C7M  Fm/C  C7M
Onde anda você
exibições 29.099
Acordes para:
    Composição: Toquinho e Vinicius Colaboração e revisão:
    • Luiz Barros
    • Ednilson Ávila

    0 comentários

    mostrar mais comentários

    Conseguiu tocar?

    11 tocaram 2 ainda não

    Grave um vídeo tocando Onde Anda Você e mande pra gente!

    00:00 / 00:00
    outros vídeos desta música
    repetir qualidade Automático
    Outros vídeos desta música
    00:00 / 00:00
    Automático
    OK